Song name
# A B C D E F G H I J K L M N O P Q R S T U V W X Y Z

Punkreas - Cuore Nero tab

Cuore nero   Punkreas
D# = E

A  F  C  G

Arpeggio
--------------------------------|
--------------------------------|
--------------------------------|
-----7----3-5-3-2-5-5-----------|
-----------------------3-5-3-2--|
--5----5------------------------|

Solo
-------------------------|
--5-5-6-8-6-5-5-5--------|
------------------7-5-7--|
-------------------------|
-------------------------|
-------------------------|

--------------------------|
--5-5-6-8-6-5-5-5-10-8----|
-----------------------7--|
--------------------------|
--------------------------|
--------------------------|

-------------------------|
--5-5-6-8-6-5-5-5--------|
------------------7-5-7--|
-------------------------|
-------------------------|
-------------------------|

-------------------------13~-------|
--2~-4~-5~-7~-9~-12~-14~-----14~~--|
-----------------------------------|
-----------------------------------|
-----------------------------------|
-----------------------------------|

Intro
Verse
Bridge
Intro
Bridge
Bridge 2
Chorus
Intro
Bridge 2
Chorus x2
Solo
Bridge 2
Chorus

Verse
Ascolto una voce
Nell’ora in cui tace tutta la città
La voce mi dice sai che cosa fare
Non resistere, lasciati trasportare
Bridge
Io sorriderò per farti male
La febbre che sale non la fermerò
Soltanto una voce mi può far pensare
La voce mi chiama e poi mi dice no
Bridge 2
Non so se ti può consolare
Non so se mi potrai capire
Non so se ti farà piacere
Non so niente eppure
Chorus
Accendi la luce
Sai che non mi piace
La pace che viene dall’oscurità
Restare nel buio mentre ti torturo
Non mi basta più
Voglio il tuo cuore nero
Tap to rate this tab
 
# A B C D E F G H I J K L M N O P Q R S T U V W X Y Z