Punkreas - Chirurgo Plastico tab

Chirurgo plastico   punkreas

D# = E

Intro
---------------------------------------------------|
---------------------------------------------------|
---------------------------------------------------|
-----------7-7--7-9-7-9---------------------7---7--|
-7-7--9-9------------------7-7-------9-9--9---9----|
--------------------------------9-9----------------|

------------------------------------|
------------------------------------|
------------------------------------|
-----------7-7--7-9-7-9-------------|
-7-7--9-9------------------5---5-6--|
-----------------------------7------|

strofa
------------------------|    -------------|
------------------------|    -------------|
--------------7-7-------| x3 -------------|
---------7-9------10-9--|    --7~~---9~~--|
--7-9-10----------------|    -------------|
------------------------|    -------------|

chorus
-------------------|    --------------------------|
-------------------|    --------------------------|
--9-9-------7------| x3 -12-12-12-12-11-11-11-11--|
--9-9-10-10-7-9-9--|    -12-12-12-12-11-11-11-11--|
--7-7-10-10-5-9-9--|    -10-10-10-10-9--9--9--9---|
------8--8----7-7--|    --------------------------|

Bridge     palm mute     G D E C   G D E (C D)

Bridge chitarra
-----------------------------------------------------|
-----------------------------------------------------|
--12-11-12-11-12-11-12-14---12-11-12-11--------------|
----------------------------------------14-14-14-12--|
-----------------------------------------------------|
-----------------------------------------------------|

------------------------------------------|
------------------------------------------|
--12-11-12-11-12-11-12-14-----------------|
-----------------------------12----12-13--|
--------------------------------14--------|
------------------------------------------|

Canzone
Intro x2
Strofa x2
Intro
Strofa x2
Chorus x2
Solo su giro del chorus x2
Bridge
Bridge chitarra x 2
Strofa solo basso
Strofa
Chorus x2
Bridge mezzo giro senza voce
Bridge x2
Tap to rate this tab
 
# A B C D E F G H I J K L M N O P Q R S T U V W X Y Z