Song name
# A B C D E F G H I J K L M N O P Q R S T U V W X Y Z

Punkreas - Sotto Esame tab

"SOTTO ESAME" DA PELLE

riff chitarra accompagnamento 1:

riff
----------------------------------------------|
----------------------------------------------|
-----10-10-10-10-10-4-4-4-4-4-6-6-6-6-6-------|
-----10-10-10-10-10-4-4-4-4-4-6-6-6-6-6-------|
------8--8--8--8--8-2-2-2-2-2-4-4-4-4-4-------|
----------------------------------------------|
  "medie, superiori....."


La canzone ? sempre con gli stessi accordi
e anche il ritornello, che ? uguale, ma ad
un ritmo diverso e con il distorsore.

riff chitarra 2

-----10-9-(x7)--10-10-10-9-5---10-9-(x7)-12-12-12-10-9------|
------------------------------------------------------------|
------------------------------------------------------------|
------------------------------------------------------------|
------------------------------------------------------------|
------------------------------------------------------------|

da eseguire durante la strofa e come stacco tra una strofa e l'altra.


Ciao da Mody & Mike(quello dell'orologio)
Speriamo che sia corretta con tutto il cuore, il fegato e i reni...
per contatti: mody@inwind.it
Tap to rate this tab
 
# A B C D E F G H I J K L M N O P Q R S T U V W X Y Z