Pupil - Sala tab

THIS IS ONLY THE INTRO!

Yan ang pinaka accurate. but if mababa ung tunog para sa inyo... pwede nyo taasan 
ung tabs ng 1 fret.

By: zErnev. ENJOY! :)

|------------------------------------------------------|
|------------------------------------------------------|
|------------------------------------------------------|
|------------------------------------------------------|
|--99--44--66-------99--44--66-------------------------|
|--------------6-6-------------4-4---------------------|

|------------------------------------------------------|
|------------------------------------------------------|
|--11-11-6-6--8-8---------11-11-6-6--8-8---------------|
|--11-11-6-6--8-8--8-8----11-11-6-6--8-8--6-6----------|
|--9-9---4-4--6-6--8-8----9-9---4-4--6-6--6-6----------|
|------------------6-6--------------------4-4----------|

INJOY!!! INJOY!!! IIIIIINJOY!!!!
Tap to rate this tab
 
# A B C D E F G H I J K L M N O P Q R S T U V W X Y Z