Song name
# A B C D E F G H I J K L M N O P Q R S T U V W X Y Z

Pupil - Different Worlds tab

Artist: Pupil
title : Different Worlds
Album : Beautiful Machines



Guitar 1 rhythm c ely ang gumagawa nito!!

e|-------------------------------------------------------------------------|
B|-------------------------------------------------------------------------|
G|-------------------------------------------------------------------------|
D|-------------------------------------------------------------------------|
A|-------------------------------------------------------------------------|
E|---2-2--4-4--5-5--6-6--7-------------------------------------------------|



e|-------------------------------------------------------------------------|
B|-------------------------------------------------------------------------|
G|-------------------------------------------------------------------------|
D|-------------------------------------------------------------------------|
A|-------------------------------------------------------------------------|
E|---2-2--4-4--5-5--6-6--2-------------------------------------------------|



Guitar 2 c yani na

e|-------------------------------------------------------------------------|
B|----------------------------------------15--13--14--12--12--14-----------|
G|------------------------------------12-----------------------------------|
D|-------------------------------------------------------------------------|
A|-------------------------------------------------------------------------|
E|-------------------------------------------------------------------------|


e|-------------------------------------------------------------------------|
B|-----------------------------------------15--13--14--12--14--------------|
G|------------------------------------12-----------------------12----------|
D|-------------------------------------------------------------------------|
A|-------------------------------------------------------------------------|
E|-------------------------------------------------------------------------|


e|-------------------------------------------------------------------------|
B|-------------------------------------------------------------------------|
G|-------------------------------------------------------------------------|
D|-------------------------------------------------------------------------|
A|-------------------------------------------------------------------------|
E|---2-2--4-4--5-5-6-6--7--------------------------------------------------|
 
x4 yan sabay ang lead at rhythm pati base kasali

Ung chords nyan 

A-E-Bm-F#m 

Bagsak bagsak lang pwede rin sa power chords kung san kayo komportable dun 

kayo!

Tuloy tuloy lang ung chords nyan tapos dun sa silent part ng chorus ata un 

Take control of your mind na isang guitar lang ganun lang din ung chords 

hangang matapos!

subukan ko kapain ung bass ng diferent worlds para happy thx!!!

PAKI RATE NAMAN PO PLS!!!

Tap to rate this tab
# A B C D E F G H I J K L M N O P Q R S T U V W X Y Z