Song name
# A B C D E F G H I J K L M N O P Q R S T U V W X Y Z

Pupil - Animal Lover tab

Help us improve GuitareTab! Take a short survey!
(Note):pakitimingan na lang po..once ko lang ito narinig e...tnx...
tabber: Rodel F. Fariņas
contact #: 09189055868/09196998754
friendster account: rain_aien0502@yahoo.com

Intro:

e----------------------------------------|I
b----------------------------------------|I
g----------------------------------------|I
d---7777--13-13-13--7777--13-13-13-------|I
a---5555--11-11-11--5555--11-11-11-------|I
E----------------------------------------|I

verse:
e----------------------------------------|I
b----------------------------------------|I
g----------------------------------------|I
d---7777--13-13-13--7777--13-13-13-------|I
a---5555--11-11-11--5555--11-11-11-------|I
E----------------------------------------|I
(2x)

Chorus:

e------------------------------------------------------------|I
b------------------------------------------------------------|I
g------------------------------------------------------------|I
d--10101010-12121212--7777777--10101010--12121212-777777-----|I
a--8-8-8-8--10101010--5555555---8-8-8-8--10101010-555555-----|I
E------------------------------------------------------------|I

e--------------------------------------------------------------------|I
b--------------------------------------------------------------------|I
g--------------------------------------------------------------------|I
d--10101010-12121212--7777777----------------------------------------|I
a--8-8-8-8--10101010--5555555---55555--8888--7777-1010101010101010---|I
E-------------------------------33333--6666--5555--8-8-8-8-8-8-8-8---|I

e-----------------------------------------|I
b-----------------------------------------|I
g-----------------------------------------|I
d---77777777---777777777------------------|I
a---55555555---555555555------------------|I
E-----------------------------------------|I

verse 2:

e----------------------------------------|I
b----------------------------------------|I
g----------------------------------------|I
d---7777--13-13-13--7777--13-13-13-------|I
a---5555--11-11-11--5555--11-11-11-------|I
E----------------------------------------|I
(2x)

[Chorus]

adib:
Not pretty sure about this...but ok naman po...
just press the D bass (sabay nyo po sa kanta......)2x then ulitin D bass..the G# 
C# bass...parang ganya po naririnig ko...

e----------------------------------------|I
b----------------------------------------|I
g----------------------------------------|I
d---7777--13-13-13--7777--13-13-13-------|I
a---5555--11-11-11--5555--11-11-11-------|I
E----------------------------------------|I
(3x)

e----------------------------------------|I
b----------------------------------------|I
g----------------------------------------|I
d---7777--13-13-13--7777--13-------------|I
a---5555--11-11-11--5555--11-(Hold)------|I
E----------------------------------------|I
[fin]
Related for Animal Lover tab