Song name
# A B C D E F G H I J K L M N O P Q R S T U V W X Y Z

Pur - Abenteuerland tab

Intro Abenteuerland

e -------------------------------------------------------------------------|
b -------------------------------------------------------------------------|
g ----/9-------------------------------------------------------------------|
d ------------10--------7------7---9---7-----------------------------------|
A ---------------------------------------------10----7-----------7---------|
E ---------------------------------------------------------10--------------|

e --------------------------------------------------------------------------|
b --------------------------------------------------------------------------|
g --------------------------------------------------------------------------|
d ----10-----7---7--9--7----------------------------------------------------|
A --------------------------------10----------------------------------------|
E --------------------------------------------------------------------------|

e ----------------------------------------------------------------------------|
b ----------------------------------------------------------------------------|
g ----------------------------------------8----7--5--7--5---------------------|
d ----------------------------------------------------------------------------|
A --7----------7----10---7----------------------------------------------------|
E -----10---------------------------------------------------------------------|
Tap to rate this tab
 
# A B C D E F G H I J K L M N O P Q R S T U V W X Y Z