Song name
# A B C D E F G H I J K L M N O P Q R S T U V W X Y Z

Pur - Verwirrt tab

Riff A
e----12-15-12----12-15-15----|
b-13----------12-------------|
g----------------------------|   4x
d----------------------------|
a----------------------------|
e----------------------------|

Riff B
e----12-13-15----12-13-15----12-13-15----12-13-15----------15--|
b-15----------13----------13----------13----------12-13-15-----|
g--------------------------------------------------------------|   2x
d--------------------------------------------------------------|
a--------------------------------------------------------------|
e--------------------------------------------------------------|

Riff A 4x

                e-----------15--|
                b--12-13-15-----|
Riff B 2x  +    g---------------|
                d---------------|
                a---------------|
                e---------------|

Solo 0.54"

e-17-17h19-------17-19-20-19-----------------------------|
b----------20-17-------------20-17--17-17-18-17----------|
g-----------------------------------------------19-------|
d-----------------------------------------------------19-|
a--------------------------------------------------------|
e--------------------------------------------------------|

e-17-17h19-------17-19-20-19-----------------------------|
b----------20-17-------------20-17--17-17-18-17----------|
g-----------------------------------------------19-------|
d--------------------------------------------------------|
a--------------------------------------------------------|
e--------------------------------------------------------|

e----------17-15----------------------------------|
b----------------18-17--17-20-18-17-17-18-17------|
g-19-16-19-----------------------------------19---|
d-------------------------------------------------|
a-------------------------------------------------|
e-------------------------------------------------|

e----------17-15--------------------------|
b----------------18-17--17-20-18-17-------|
g-19-16-19--------------------------------|
d-----------------------------------------|
a-----------------------------------------|
e-----------------------------------------|

solo 2.55"

e-17-------20-19-17-15-17-------------------------|
b----17-17----------------17-17-------------------|
g-------------------------------19-17-16-17-19----|
d-------------------------------------------------|   2x
a-------------------------------------------------|
e-------------------------------------------------|

e--------------17-15----------20-20-22-19-15--------------------15-17---|
b--------------------18-17-20----------------20--18-17-15-17-18---------|
g-19--------19----------------------------------------------------------|
d-------19--------------------------------------------------------------|
a-----------------------------------------------------------------------|
e-----------------------------------------------------------------------|

e--------------------15-17----------20-20-22-19------|
b-18-17-15--15-17-18-------18-17-20-------------20---|
g----------------------------------------------------|
d----------------------------------------------------|
a----------------------------------------------------|
e----------------------------------------------------|
Tap to rate this tab
# A B C D E F G H I J K L M N O P Q R S T U V W X Y Z