Song name
# A B C D E F G H I J K L M N O P Q R S T U V W X Y Z

Pure Love - Handsome Devils Club tab

----------------------------------------------------------------------------
                        HANDSOME DEVILS CLUB  Pure Love
----------------------------------------------------------------------------

Tabbed by: DrSin
E-mail: drsin13@hotmail.co.uk

Video Covere here! http://www.youtube.com/watch?v=a_7kdei89OM

Tuning: Standard

INTRO:

e|-0--0---4-------2-----2-----------|
B|-2---2--5--5----2------2----------|
G|-2------6---6---2--2----2----X4---|
D|-2------6-------4---4-------------|
A|-0------4-------4-----------------|
E|----------------2-----------------|

   A      C#m     F#m

VERSE:

e|-0------4-------2-----2----------2--0--|
B|-2------5-------2------2---------3--2--|
G|-2------6-------2--2----2----X3--2--2--|
D|-2------6-------4---4------------0--2--|
A|-0------4-------4-------------------0--|
E|----------------2----------------------|

   A      C#m     F#m             D   A

BRIDGE:                        CHORUS:
                           (Mute strings)
e|-0----2------2---2---2---0---x-xx---2--0---|
B|-0----2------4---2---3---2---x-xx---3--2---|
G|-1----2------4---2---2---2---x-xx---2--2---|
D|-2----4--X2--4---4---0---2---x-xx---0--2---|
A|-2----4------2---4-------0---x-xx------0---|
E|-0----2----------2-----------x-xx----------|

   E   F#m     B  F#m  D   A          D  A

VERSE 2:

e|-0------4-------2-----2----------2--0--|
B|-2------5-------2------2---------3--2--|
G|-2------6-------2--2----2----X3--2--2--|
D|-2------6-------4---4------------0--2--|
A|-0------4-------4-------------------0--|
E|----------------2----------------------|

   A      C#m     F#m             D   A

BRIDGE:                        CHORUS:
                           (Mute strings)
e|-0----2------2---2---2---0---x-xx---2--0---|
B|-0----2------4---2---3---2---x-xx---3--2---|
G|-1----2------4---2---2---2---x-xx---2--2---|
D|-2----4--X2--4---4---0---2---x-xx---0--2---|
A|-2----4------2---4-------0---x-xx------0---|
E|-0----2----------2-----------x-xx----------|

   E   F#m      B  F#m  D   A         D  A


MIDDLE 8:

e|-------------------------------------------------------------|
B|-------------------------------------------------------------|
G|-------------------------------------------------------------|
D|-------------------------------------------------------------|
A|-------------------------------------------------------------|
E|--2-22-0-2-22-0-2-22-0-2-22-0-5-55-0-5-55-0-5-55-0-5-55-0----|

e|---------------------------------------------------------------7-5-|
B|---------------------------------------------------------------7-7-|
G|---------------------------------------------------------------7-7-|
D|------------------------------------------7-------------7---9----7-|
A|-----------------------------------7-------------7-----------9---5-|
E|--2-22-0-2-22-0-2-22-0-2-22-0-5-55---5-55---5-55---5-55----7-------|

                                                                B  D

FINAL CHORUS:

e|-0----4----2----2--------|
B|-2----5----2----3--------|
G|-2----6----2----2--------|
D|-2----6----4----0--------|
A|-0----4----4-------------|
E|-----------2-------------|

   A   C#m  F#m   D 

REPEAT TILL END THEN D, D, D, A.


Tap to rate this tab
 
# A B C D E F G H I J K L M N O P Q R S T U V W X Y Z