Song name
# A B C D E F G H I J K L M N O P Q R S T U V W X Y Z

Pure Love - Riot Song tab

----------------------------------------------------------------------------
                             RIOT SONG - Pure Love
----------------------------------------------------------------------------
Tabbed by: Dr Sin
E-mail: drsin13@hotmail.co.ul

Tuning: Standard (EADGBE)

INTRO/RIFF:

(Guitar ONE)

e|------3---2----0---0------|
B|------3---2----0---0------|
G|------4---4----0---0------|
D|------5---5----2---2------|
A|------5---5----2---2------|
E|------3---3----0---0------|

        G   G    Em  Em

(Guitar TWO)

e|-------------------------------------------|------------|
B|---------3---------------------1-----------|------------|
G|--2---4-----4----X2----2---4--(5)--4----X2-|--2---0~----|
D|-------------------------------------------|------------|
A|-------------------------------------------|------------|
E|-------------------------------------------|------------|

VERSE:

e|------3---2----0---0------|
B|------3---2----0---0------|
G|------4---4----0---0--X4--|
D|------5---5----2---2------|
A|------5---5----2---2------|
E|------3---3----0---0------|

        G   G    Em  Em

CHORUS:

e|------3------3-------3-------0------3--------|
B|------5------3-------5-------0------3--------|
G|------5------4-------5-------0------2---X2---|
D|------5------5--X3---5-------2------0--------|
A|------3------5-------3-------2---------------|
E|-------------3---------------0---------------|

        C       G       C       Em      D


RIFF

VERSE 2

CHORUS 

BRIDGE = RIFF PALM MUTED

CHORUS REPEATED UNTIL END.

************************************
Tap to rate this tab
# A B C D E F G H I J K L M N O P Q R S T U V W X Y Z