Song name
# A B C D E F G H I J K L M N O P Q R S T U V W X Y Z

Pure Love - Bury My Bones tab

A pretty simple song to play, learned this by ear because there's no good tabs so 
decided i might aswell make one of how i play it.

(Also my first tablature so i apologise in advance for any mistakes!)

Standard Tuning.

Intro/Verse

|-----------------|
|-----------------|
|-----6-----------|
|--2--6--7-7--2-2-| Play this 6x altogether for the intro AND the first
|--2--4--7-7--2-2-| verse then...
|--0-----5-5--0-0-|

Pre-Chorus

"So carve your name into the stone..."

|----------------------------------|
|--0-0--2-2------------------------|
|--1-1--2-2--9---------------------|
|--2-2--2-2--9- Play 3x then..--7--|
|------------7------------------7--| "If i ever die..."
|-------------------------------5--|

OR

|-----------------------|
|-----------------------|
|--------9--------------|
|--6--7--9--x3 then--7--|
|--5--7--7-----------7--|
|--4--5--------------5--|



Chorus

"Just Bury My Bones in here..."

|------------------|
|------------------|
|------------------|
|--2--7---7-7--2-2-| Play 4x then repeat the Intro/Verse riff for 4 instead
|--2--7---7-7--2-2-|  of 6x, then repeat Pre Chorus and Chorus...
|--0--5---5-5--0-0-|

Bridge

|----------------------------------------|
|----------------------------------------|
|----------9-----------------------------|
|--6---7---9---6---6---7---9--9--9-9-9-9-|
|--6---7---7---6---6---7---9--9--9-9-9-9-|
|--4---5-------4---4---5---7--7--7-7-7-7-|

Solo

b = Bend, p = Pull Off, h = Hammer on, hp = Hammer to a Pull off, bp = Bend to a pull 
off, /s = Slide up.

|-------------------------------------------------------|
|--9----------------12p9-9-10p9----9--------------------|
|--11b--11bp9----9--------------11---11-9------9-11-11b-|
|-------------11--------------------------/s11----------|
|-------------------------------------------------------|
|-------------------------------------------------------|

|-------12------12------12------12----------14bp12-14b--|
|--12h14---12h14---12h14---12h14---12h14p12-------------|
|-------------------------------------------------------|
|-------------------------------------------------------|
|-------------------------------------------------------|
|-------------------------------------------------------|

|--19-19-19-16hp17----16------------------16--|
|------------------19----19-17------17-19-19b-|
|------------------------------/s18-----------|
|---------------------------------------------|
|---------------------------------------------|
|---------------------------------------------|

Then repeat the Pre Chorus and the Chorus once, and thats the end

Thanks for using my tab! Feedback would be appreciated.

Also let me know if you spot any mistakes, or if you find any other ways of playing the 
parts and il add them.

Cheers!
Tap to rate this tab
# A B C D E F G H I J K L M N O P Q R S T U V W X Y Z