Guitaretab - guitar tabs
Song name
# A B C D E F G H I J K L M N O P Q R S T U V W X Y Z

Pure Prairie League - Amie tab

****        
Amie 
****

By Pure Prairie League

I've seen the chords every else, but here's the intro:

Guitar 1:

   A5
E|-----5-----5-----5----5-------||
B|-----5-----5-----5----5-------||
G|--2-----2-----2-----2----etc.-||
D|------------------------------||
A|------------------------------||
E|------------------------------||

Guitar 2:
[ Tab from: http://www.guitaretab.com/p/pure-prairie-league/15243.html ]
E|--------------------0-2-0------------------------------||
B|------------0---0-2-------2-0-------------0---0h2-0-0--||
G|------2-2-----2---------------2-------2-2---2----------||
D|--2/4-----------------------------2/4------------------||
A|-------------------------------------------------------||
E|-------------------------------------------------------||

E|------------------0-2-0-2-0-2-0-5-0-2-0-2-0-0-5-0--0-5/9-7-5-||
B|----------0---0-2-----------------------------7---7-----------||
G|-----2-2----2---------------------------------7---------------||
D|-2/4----------------------------------------------------------||
A|--------------------------------------------------------------||
E|--------------------------------------------------------------||

The end is kinda tricky and the rhythm is hard to notate but it sounds awesome
Please rate this tab and offer suggestions

Adam B.
Email:Atwbthe3rd@yahoo.com
Related for Amie tab