Pure Prairie League - Amie tab

Song:  Amie
Band:  Pure Prarie League
Tab By:Jerry Oltremari
Notes: In the section 2 of the intro there are multiple guitars playing,
       so I tabbed out what I hear and how I play it.

Key: A
/ - Slide up
\ - Slide down
b - Bend
r - Release bend
h - Hammer on
p - Pull off
~ - Fast strumming

Intro Section 1:
"A" chord played for 8 beats

e|-----------------------------------------------------------------------------|
B|-10--------------------------------------------------------------------------|
G|-9---------------------------------------------------------------------------|
D|-7---------------------------------------------------------------------------|
A|-----------------------------------------------------------------------------|
E|-----------------------------------------------------------------------------|

Intro Section 2:

e|-----------------------------------------------------------------------------|
B|-------------------5-7-5-----------------------------------------------------|
G|-----2-2--4-2--4/6--------6\4-2------2-2--4-2--4/6\4-4-----------------------|
D|-2-4-----------------------------2-4-----------------------------------------|
A|-----------------------------------------------------------------------------|
E|-----------------------------------------------------------------------------|

Intro Section 3:

e|-------------------------5-----5-----5-------------------------------------0-|
B|-------------------5-7---5--7--5--7--5--7--5-7-5---5--5-7-5----------------2-|
G|-----2-2--4-2--4/6-------------------------------6-----------6/4--2--------2-|
D|-2-4----------------------------------------------------------------4-2----2-|
A|------------------------------------------------------------------------0--0-|
E|-----------------------------------------------------------------------------|


Chords for verse lead-in

A G D  A G D

Chord progression verse:

A G D  A G D  A G D  A D C D C E

Chord progression chorus:

A G D  A G D  Bm E

Solo Section 1:

e|-----------------------------------------------------------------------------|
B|----------------------5-5------5---------------------------------------------|
G|-------2---2--4-2-4/6--6---4/6---6\4--2---2--2----5-4-2--2-------------------|
D|-2/4-4---4------------------------------4-----4-2----------4-----------------|
A|-----------------------------------------------------------------------------|
E|-----------------------------------------------------------------------------|

Solo Section 2:
~ - Fast up and down strumming 4 beats each 
e|-----------------------------------------------------------------------------|
B|------------------------------------5~~~~--8~~~~-----------------------------|
G|----------------------5-4-2--2-4/6--6~~~~--9~~~~-----2-4-2--4/5-4---2-4-2-2--|
D|-----2-4-2--5\4-2-4-2----------------------------2/4--------------4---------4|
A|-3h4-------------------------------------------------------------------------|
E|-----------------------------------------------------------------------------|

Solo Section 3:

e|-----------------------------------------------------------------------------|
B|-----------------------------------------------------------3-----------------|
G|---------0-0-2-0-3-2-2-0-----2-4-2--5\4p2-5\4p2-5\4p2------------------------|
D|-----1h2-----------------2/4--------------------------3\4--------------------|
A|-3-3-------------------------------------------------------------------------|
E|-----------------------------------------------------------------------------|

Solo Section 4:

e|-----------------------------------------------------------------5-7b8-7-5-7b8r7b8r5-|
B|-------------------------------------------------------5---5-5-7---------------------|
G|---------0-0-2-0-3-2-0--0-----2---2-2-4-2-4/6-4-4--4/6---6---------------------------|
D|-----2-2------------------2/4---4----------------------------------------------------|
A|-3-3---------------------------------------------------------------------------------|
E|-------------------------------------------------------------------------------------|
Tap to rate this tab
 
# A B C D E F G H I J K L M N O P Q R S T U V W X Y Z