Song name
# A B C D E F G H I J K L M N O P Q R S T U V W X Y Z

Pure Reason Revolution - Aeropause tab

2X

e------0-----------0---------------------|
B----------------------------------------| 
G---10---10-----10---10------------------|
D-0-----------0---------0----------------|
A----------------------------------------|
E----------------------------------------|

2X

e------7-----------7---------------------|
B----------------------------------------| 
G---10---10-----10---10------------------|
D-0-----------0---------0----------------|
A----------------------------------------|
E----------------------------------------|

e----------------------------------------|
B----------------------------------------|
G----------------------------------------|
D--7s15----------------------------------|
A----------------------------------------|
E----------------------------------------|
Tap to rate this tab
 
# A B C D E F G H I J K L M N O P Q R S T U V W X Y Z