Song name
# A B C D E F G H I J K L M N O P Q R S T U V W X Y Z

Pure - Anna Is A Speed Freak tab

Song: Anna (is a Speed Freak)
Artist: Pure
Album: Generation Six-Pack (1996)
http://jam.canoe.ca/Music/Pop_Encyclopedia/P/Pure.html

Standard tuning, heavy distortion

intro
|------------------------------------------------------------------------------------------|
|------------------------------------------------------------------------------------------|
|--10-----10--12--14--9---5-----------------------------------------------x--x--3--3--3--3-|
|---x------x--x---x---x---x--------------x--x--7--x--x--5--x--x--3--3--3--x--x--3--3--3--3-|
|---8------8--10--12--7---3--------------x--x--7--x--x--5--x--x--3--3--3--x--x--1--1--1--1-|
|----------------------------------------x--x--5--x--x--3--x--x--1--1--1-------------------|

|------------------------------------------------------------------------------------------|
|------------------------------------------------------------------------------------------|
|-----------------------------------x--x--3--3--3--3----9----7----5----3-------------------|
|--x--x--7--x--x--5--x--x--3--3--3--x--x--3--3--3--3----9----7----5----3-------------------|
|--x--x--7--x--x--5--x--x--3--3--3--x--x--1--1--1--1----7----5----3----1-------------------|
|--x--x--5--x--x--3--x--x--1--1--1---------------------------------------------------------|

verse (x3)
|--------------------------------------------------------------------------------------------|
|--------------------------------------------------------------------------------------------|
|---------x-x--3--3--3--3------------------------------x-x--3--3--3--3-----------------------|
|--3-3-3--x-x--3--3--3--3--x-x--7--x-x--5--x-x--3-3-3--x-x--3--3--3--3--x-x--7--x-x--5--x-x--|
|--3-3-3--x-x--1--1--1--1--x-x--7--x-x--5--x-x--3-3-3--x-x--1--1--1--1--x-x--7--x-x--5--x-x--|
|--1-1-1-------------------x-x--5--x-x--3--x-x--1-1-1-------------------x-x--5--x-x--3--x-x--|

chorus
|------------------------------------------------------------------------------------------|
|------------------------------------------------------------------------------------------|
|------------------------------------------------------------------------------------------|
|--3~~~~~~~~~~~~~~~~~~~~~~~~~~~~~~~~~~~~~~~~~~~~~~~~~~~~~~~~~~~~~~~~~~~~~~~~~~~~~~~~~~~~~~~
|--3~~~~~~~~~~~~~~~~~~~~~~~~~~~~~~~~~~~~~~~~~~~~~~~~~~~~~~~~~~~~~~~~~~~~~~~~~~~~~~~~~~~~~~~
|--1~~~~~~~~~~~~~~~~~~~~~~~~~~~~~~~~~~~~~~~~~~~~~~~~~~~~~~~~~~~~~~~~~~~~~~~~~~~~~~~~~~~~~~~

|------------------------------------------------------------------------------------------|
|------------------------------------------------------------------------------------------|
|--10-----10--12---14---9---5~~~~~~~~~~~~~~~~~~~~~~~~~~~~~~~~~~~~~~~~~~~~~~~~~~~~~~~~~~5---|
|---x-----x---x----x----x---x----------------------------------------------------------x---|
|---8-----8---10---12---7---3~~~~~~~~~~~~~~~~~~~~~~~~~~~~~~~~~~~~~~~~~~~~~~~~~~~~~~~~~~3---|
|------------------------------------------------------------------------------------------|


|------------------------------------------------------------------------------------------|
|------------------------------------------------------------------------------------------|
|--10-----10--12---14---9---5--------------------------------------------------------------|
|---x------x---x----x---x---x-----------x--x--7--x--x--5--x--x-----------------------------|
|---8------8---10---12--7---3-----------x--x--7--x--x--5--x--x-----------------------------|
|---------------------------------------x--x--5--x--x--3--x--x-----------------------------|

verse x3

bridge
|------------------------------------------------------------------------------------------|
|------------------------------------------------------------------------------------------|
|------------------------------------------------------------------------------------------|
|--3~~~~~~~~~~~~~~~~~~~~~~~~~~~~~~~~~~~~~~~~~~~~~3~~~~~~~~~~~~~~~~~~~~~~~~~~~~~~~~~~~~~~~~~
|--3~~~~~~~~~~~~~~~~~~~~~~~~~~~~~~~~~~~~~~~~~~~~~3~~~~~~~~~~~~~~~~~~~~~~~~~~~~~~~~~~~~~~~~~
|--1~~~~~~~~~~~~~~~~~~~~~~~~~~~~~~~~~~~~~~~~~~~~~1~~~~~~~~~~~~~~~~~~~~~~~~~~~~~~~~~~~~~~~~~

|------------------------------------------------------------------------------------------|
|------------------------------------------------------------------------------------------|
|--10-----10--12--14--9---5~~~~~~~~~~~~~~~~~~~~~~~~~~~~~~~~~~~~~~~~~~~~~~~~~~~~~~~~~~~~5---|
|---x------x--x---x---x---x-------------------------------------------------------------x--|
|---8------8--10--12--7---3~~~~~~~~~~~~~~~~~~~~~~~~~~~~~~~~~~~~~~~~~~~~~~~~~~~~~~~~~~~~3---|
|------------------------------------------------------------------------------------------|

intro

|------------------------------------------------------------------------------------------|
|------------------------------------------------------------------------------------------|
|---------x-x--3--3--3--3------------------------------x-x--3--3--3--3----9----7----5----3-|
|--3-3-3--x-x--3--3--3--3--x-x--7--x-x--5--x-x--3-3-3--x-x--3--3--3--3----9----7----5----3-|
|--3-3-3--x-x--1--1--1--1--x-x--7--x-x--5--x-x--3-3-3--x-x--1--1--1--1----7----5----3----1-|
|--1-1-1-------------------x-x--5--x-x--3--x-x--1-1-1--------------------------------------|

|------------------------------------------------------------------------------------------|
|------------------------------------------------------------------------------------------|
|---------x-x--3--3--3--3------------------------------------------------------------------|
|--3-3-3--x-x--3--3--3--3--x-x--7--x-x--5--x-x--3-3-3--------------------------------------|
|--3-3-3--x-x--1--1--1--1--x-x--7--x-x--5--x-x--3-3-3--------------------------------------|
|--1-1-1-------------------x-x--5--x-x--3--x-x--1-1-1--------------------------------------|

outro (x6)
|------------------------------------------------------------------------------------------|
|------------------------------------------------------------------------------------------|
|--10-----10--12---14---9---5--------------------------------------------------------------|
|---x------x--x----x----x---x-----------x--x--7--x--x--5--x--x-----------------------------|
|---8------8--10---12---7---3-----------x--x--7--x--x--5--x--x-----------------------------|
|---------------------------------------x--x--5--x--x--3--x--x-----------------------------|

/  slide up
\  slide down
h  hammer-on
p  pull-off
~  vibrato
+  harmonic
x  Mute note
Tap to rate this tab
# A B C D E F G H I J K L M N O P Q R S T U V W X Y Z