Song name
# A B C D E F G H I J K L M N O P Q R S T U V W X Y Z

Purging The Gates - Widdles tab

A Purging The Gates original, tabbed by Jeremy DelaCruz. More to come(: 
www.myspace.com/purging the gates



   intro
|----------------------------------|
|----------------------------------|
|----------------------------------|
|----------------------------------|x3
|---5h8---4h7-----5h8---4h7p0-3h6p0|
|--0-----0----000-----0------------|
   .     .    ...     .  
|-------------------------------------|
|-------------------------------------|
|-------------------------------------|
|------------------------------------0|
|---5h8---4h7-----5h8---4h7p0-3h6p0--0|
|-0-----0-----000-----0--------------0|
  .     .     ...     .              mute 
   
    verse 1
|-----------|--------------------------------------------------|
|-----------|--------------------------------------------------|
|-----------|--------------------------------------------------|
|-----------|--------------------------------------------------|X2(No slide)
|-----------|-----5-h-8---4-h-7--------5-h-8----4h7p0 3h6p0----|
|-12(slide)1|---0-------0-------0-0-0--------0-----------------|
  ---slower-----.-------.-------.-.-.--------.-----------------|

|--------------------------------------------|
|--------------------------------------------|
|--------------------------------------------|
|---7-h-10---6-h-9-----7-h-10---6h9p0--5h8p0-|X2
|--------------------------------------------|
|-0--------0-------000--------0--------------|
  .        .       ...        .
   
    2 step
|----------------------------------------------------------------------|
|----------------------------------------------------------------------|
|---10---9------------12-----------------------------------------------|
|---x-x8-x-x4-(slide)--x-x4--------------------------------------------|
|---8----7------------10-----------------------------------------------|
|-----------------------------0000-0000-0000-0000-0000-0000-0000-0000--|
                              .... .... .... .... .... .... .... ....
|-------------------------------------------------------------|
|-------------------------------------------------------------|
|-------------------------------------------------------------|
|--8----7------------10---------------0-----------------------|
|--8-x8-7-x4-(slide)-10-x4------------0(ring)----12(slide)1---|
|--8----7------------10------0000-x15-0-----------------------|
                             ....     

    breakdown 1 part 1
|------------------------------------------------------------------|
|------------------------------------------------------------------|
|------------------------------------------------------------------|
|--000-000--1-0--000-000-000-3333--000-000-1-0-000-000-000---------|
|--000-000--1p0--000-000-000-xxxx--000-000-1p0-000-000-000-(pause)-|
|--000-000--1-0--000-000-000-1111--000-000-1-0-000-000-000---------|
   ... ...       ... ... ...       ... ...     ... ... ...

|---------------------------------------------------------------------|
|---------------------------------------------------------------------|
|---------------------------------------------------------------------|
|--000-000--1-0--000-000-000-3333--000-000-1-0-000-000-000------------|
|--000-000--1p0--000-000-000-xxxx--000-000-1p0-000-000-000-12(slide)1-|
|--000-000--1-0--000-000-000-1111--000-000-1-0-000-000-000------------|
   ... ...       ... ... ...       ... ...     ... ... ...

   breakdown 1 part 2 (chugs)
|---------------------------------------------------------|
|---------------------------------------------------------|
|---------------------------------------------------------|
|--00000---1-0000-000-0--3333--00000--1-0000-000-0--------|
|--00000---1p0000-000-0--xxxx--00000--1p0000-000-0(pause)-|
|--00000---1-0000-000-0--1111--00000--1-0000-000-0--------|
 --.....------...-...-.-slower-.....----....-...-.-----      

|---------------------------------------------------------|
|---------------------------------------------------------|
|---------------------------------------------------------|
|--00000---1-0000-000-0--3333--00000--1-0000-000-0--------|
|--00000---1p0000-000-0--xxxx--00000--1p0000-000-0(pause)-|
|--00000---1-0000-000-0--1111--00000--1-0000-000-0--------|
  -.....------...-...-. slower-.....----....-...-.------  

   bridge (variation of intro)
|-------------------------------------------------------------------------|
|-------------------------------------------------------------------------|
|-------------------------------------------------------------------------|
|-------------------------------------------------------------------------|
|---5h8---4h7-----5h8---4h7p0-3h6p0----5h8--4h7-----5h8-------------------|
|--0-----0----000-----0---------------0----0----000-----0---1h4p0--3h6p0--|
   .     .    ...     .               .    .    ...     .      
|-------------------------------------------------------------------------|
|-------------------------------------------------------------------------|
|-------------------------------------------------------------------------|
|-------------------------------------------------------------------------|
|---5h8---4h7-----5h8---4h7p0-3h6p0----5h8--4h7-----5h8-------------------|
|--0-----0----000-----0---------------0----0----000-----0---3h6p0--5h8p0--|


   verse 2
|------------------------------------------------------------|
|------------------------------------------------------------|
|------------------------------------------------------------|
|--------------------------------------------------------1---|x4
|---8-7-5-4-5-------------1---1h3----5-4-1-0-1-----------1x4-|
|-0-----------000-0-0-0-0---0------0-----------000-0-0-0-1---|
  .           ... . . . .   .      .           ... . . .
 
   melodic part
|----------------------------------------------|
|----------------------------------------------|
|----------------------------------------------|
|-2----4---1--------2-----4---1-----2----------|
|-2x29-4x2-1x29-x3--2x29--4x2-1x29--2(ring)----|
|-2----4---1--------2-----4---1-----2----------|

  
  breakdown 2 part 1
|-------------------------------------------------|
|-------------------------------------------------|
|-------------------------------------------------|
|-000-000-1p0-00----------------------------------|
|-000-000-1p0-00-(And how was I supposed to know)-|
|-000-000-1p0-00----------------------------------|
  ... ...     ..
|-----------------------------------------------|
|-----------------------------------------------|
|-----------------------------------------------|
|-000-000-1p0-00--------------------------------|
|-000-000-1p0-00-(That this would be the last)--|
|-000-000-1p0-00--------------------------------|
  ... ...     ..
|-----------------------------------------|
|-----------------------------------------|
|-----------------------------------------|
|-000-000-1p0-00--------------------------|
|-000-000-1p0-00-(Chance we'd ever have)--|
|-000-000-1p0-00--------------------------|
  ... ...     ..

|----------------------------------------------|
|----------------------------------------------|
|----------------------------------------------|
|-000-000-1p0-00-------------------------------|
|-000-000-1p0-00-(To try to change the world)--|
|-000-000-1p0-00-------------------------------|
  ... ...     ..

   breakdown 2 part 2 (chugs)
|-----------------------------------------------------|
|-----------------------------------------------------|
|-----------------------------------------------------|
|-00000--1p0000--000-1p0000--00000--1p0000--000-0-0---|x4
|-00000--1p0000--000-1p0000--00000--1p0000--000-0-0---|
|-00000--1p0000--000-1p0000--00000--1p0000--000-0-0---|
  .....     ...  ...    ...  .....     ...  ... . .


h - hammer on
p - pull off
. - palm mute
(slide) - ..slide lol
(ring) - note held

This concludes Widdles. Remember, add us, www.myspace.com/purgingthegates
add me? (: www.myspace.com/jakel1

Tap to rate this tab
# A B C D E F G H I J K L M N O P Q R S T U V W X Y Z