Guitaretab - guitar tabs
Song name
# A B C D E F G H I J K L M N O P Q R S T U V W X Y Z

Purple Albinos - Fluffy Song tab

Song:Fluffy Song
Band:Purple Albinos
Tabbed by:Collins Espy
Email:pcespy39@hotmail.com

This band is soo cool. There first album went wood.

Verse:
E:-2-2-2-2-----------2-2-2-2----------|
B:-3-3-3-3--3-3-3-3--3-3-3-3--3-3-3-3-|
G:-2-2-2-2--2-2-2-2--2-2-2-2--2-2-2-2-|
D:------------------------------------|
A:------------------------------------|
E:------------------------------------|
[ Tab from: http://www.guitaretab.com/p/purple-albinos/42987.html ]
Chorus:
E:--------------------------|
B:--------------------------|
G:--------------------------|
D:-7-7-7-7--9--11-11-11-11--|
A:-7-7-7-7--9--11-11-11-11--|
E:-5-5-5-5--7--9--9--9--9---|

E:--------------------------------------|
B:--------------------------------------|
G:--------------------------------------|
D:-7-7-7-7--9--11-11-11-11--14-14-14-14-|
A:-7-7-7-7--9--11-11-11-11--14-14-14-14-|
E:-5-5-5-5--7--9--9--9--9---12-12-12-12-|

Bridge:
E------------|
B------------|
G------------|
D-9-9--9-9-9-|
A-9-9--9-9-9-|
E-7-7--7-7-7-|


Long live the PURPLE ALBINOS!!!!!
Advertisement will be closed in 10 seconds