Song name
# A B C D E F G H I J K L M N O P Q R S T U V W X Y Z

Purple Dragon - Deathly Hallows tab

This is my new band and this is our first song, hope you enjoy :)

E|-------------------------|
B|-------------------------|
G|-------------------------|
D|-------------------------|  x8
A|-----2-----3-----4-----3-|
D|-0-1---0-1---0-1---0-1---|

E|-------------------------------------------------------------------|
B|-------------------------------------------------------------------|
G|-4-4-4444-444-44-0---------------------------------9-9-9999-999-99-|
D|-4-4-4444-444-44-0-5-5-5555-555-55-7-7777-777-77-0-9-9-9999-999-99-|  x4
A|-2-2-2222-222-22-0-5-5-5555-555-55-7-7777-777-77-0-7-7-7777-777-77-|
D|-------------------5-5-5555-555-55-7-7777-777-77-0-----------------|
           p h                         p h                        p h
E|----------------|         E|----------------|        E|----------------|
B|----------------|         B|----------------|        B|----------------|
G|----------------|         G|----------------|        G|----------------|
D|-99-7-9-------0-|  x4     D|-55-4-5---------|  x4    D|-99-7-9-------0-|  x4
A|-99-7-9-7^9^7---|         A|-55-4-5-4^5^4-0-|        A|-99-7-9-7^9^7---|
D|-99-7-9---------|         D|-55-4-5---------|        D|-99-7-9---------|
Tap to rate this tab
 
# A B C D E F G H I J K L M N O P Q R S T U V W X Y Z