Song name
# A B C D E F G H I J K L M N O P Q R S T U V W X Y Z

Pursuit Of Happiness - Im An Adult Now tab

Help us improve GuitareTab! Take a short survey!
Tabber: Visual Effects Metal

Band:The Pursuit of Happiness 
Song: I'm an Adult Now
Date Created: 03/14/08

Tuning: Standard EADGBe



INTRO:
|----------------------------------------|
|----------------------------------------|
|----------------------------------------|
|----9-99--12-12121212-12----------------| 2X
|----7-77--10-10101010-9-----------------|
|-00-------------------------------------|
   .

|-----------------------------------------|
|-----------------------------------------|pre-verse
|-----------------------------------------|
|--9--9-99--12-12121212-12----------------| 2X
|--7--7-77--10-10101010-9-----------------|
|-0-0-------------------------------------|
  . .
|-----------------------------------------|
|-----------------------------------------|
|-------------------------9-99\7----------|verse part 1
|-------------------------7-77\5----------| 
|-------------------------------7---------|
|0000000000000000000000000----------------|
 .........................

|-----------------------------------------|
|-----------------------------------------|
|--------------------------9--------------|verse part 2
|------------------------5/9757^br5p------| 
|-----------------------------------7-----|
|0000000000000000000000000----------0-----|
 .........................

|-----------------------------------------|
|-----------------------------------------|
|-----------------------------------------|verse part 3
|-----------------------------------------| 
|---------------------------5/7\5---------|
|0000000000000000000000000--3/5\3---------|
 .........................


|-----------------------------------------|
|-----------------------------------------|
|-----------------------------------------|verse part 4
|--------------------------9--99----------| 
|--------------------------7--77----------|
|0000000000000000000000000--00------------|
 .........................  ..



|-----------------------------------------|
|-----------------------------------------|chorus part 1
|-----------------------------------------|
|---77/9-12-1212-7/99---------------------| 
|---55/7-10-1010-5/77---------------------|
|00-----0---------------------------------|
 ..     .

|-----------------------------------------|
|-----------------------------------------| chorus part 2
|-----------------------------------------|
|--9--9-99--12-12121212-12----------------| 
|--7--7-77--10-10101010-9-----------------|
|-0-0-------------------------------------|
  . .

|-----------------------------------------|
|-----------------------------------------|chorus part 1
|-----------------------------------------|
|---77/9-12-1212-7/99---------------------| 
|---55/7-10-1010-5/77---------------------|
|00-----0---------------------------------|
 ..     .

end on
|--------|
|--------|
|--------|
|---9----| 
|---7----|
|--------|

soory, no solo :?(
Related for Im An Adult Now tab