Song name
# A B C D E F G H I J K L M N O P Q R S T U V W X Y Z

Puscifer - Momma Sed tab

The coolest song on the record.
The E-string has to be dropped to D!

h - hammer on
\ - slide down
p - pull off

intro
e -------------------------------|
B -------------------------------|
G -------------------------------|
D --5h6-5\3-1-3--1h3-1p0---------|
A -----------------------1-3-----|
D 3--------------------------6-3-|

verse
e -----------------------------|
B -----------------------------|
G -----------------------------|
D -3-1-1-1-1-3-3-3-----1-1-1---|
A -3-1-1-1-1-3-3-3-----1-1-1---|
D -3-1-1-1-1-3-3-3-----1-1-1---|

bridge
e ------------------------|
B -------------4----------|
G ------------------------|
D -1--1-1-1-1-----1-1-1---|
A -1--1-1-1-1-----1-1-1---|
D -1--1-1-1-1-----1-1-1---|

in the background through refrain:
e -3-4-3-1-|
B ---------|
G ---------|
D ---------|
A ---------|
D ---------|


wake up son of mine
momma got somethin' to tell you

changes come
life will have its way
with your pride, son
take it like a man

hang on son of mine
the storm is blowing up your horizon

changes come
keep your dignity
take the high road
take it like a man

listen up son of mine
momma got something to tell you
all about growing pains
life will pound away
where the light don't shine, son
take it like a man

suck it up son of mine
fucker blowing up your horizon

changes come
keep your dignity
take the high road
take it like a man

momma said like the rain
(this too shall pass)
like a kidney stone
(this too shall pass)
it's just a broken heart, son
this pain will pass away
Tap to rate this tab
# A B C D E F G H I J K L M N O P Q R S T U V W X Y Z