Puscifer - Momma Sed tab

Momma Sed (Tandimonium Mix)
By Puscifer

This is my very first tab, so I hope it is enough accurate.
I have only wrote down the beginning of the song, but this is the nicest part to
play with a guitar.
Enjoy and keep listening to this awesome song !


"Changes come"                       "Keep your dignity"
e|-8-8-------------|-8-8-------------|-6-6---------9---|-6-6---------9---|
B|-----8-8-6-6-----|-----8-8-6-6-----|-----9-9-7-7-----|-----9-9-7-7-----|
G|-------------5---|-------------5---|-----------------|-----------------|
D|-----------------|-----------------|-----------------|-----------------|
A|-----------------|-----------------|-----------------|-----------------|
D|-----------------|-----------------|-----------------|-----------------|


"Take the high road"                 "Take it like a like a like a man"
e|-9-9-8-8-6-6-----|-9-9-8-8-6-6-----|-8-8-------------|-8-8-------------|
B|-------------6---|-------------6---|-----9-9-8-8-6---|-----9-9-8-8-6---|
G|-----------------|-----------------|-----------------|-----------------|
D|-----------------|-----------------|-----------------|-----------------|
A|-----------------|-----------------|-----------------|-----------------|
D|-----------------|-----------------|-----------------|-----------------|


"Changes come"                       "Keep your dignity"
e|-9-9-8-8---------|-9-9-8-8---------|-11-11----------------|
B|---------9-9-8---|---------9-9-8---|-------11-11-8-8------|
G|-----------------|-----------------|-----------------10---|
D|-----------------|-----------------|----------------------|
A|-----------------|-----------------|----------------------|
D|-----------------|-----------------|----------------------|


                         "Take the high road"
e|-11-11-----------------|-9-9-8-8-6-6-----|-9-9-8-8-6-6-----|
B|-------11-11-8-11-11---|-------------6---|-------------6---|
G|-----------------------|-----------------|-----------------|
D|-----------------------|-----------------|-----------------|
A|-----------------------|-----------------|-----------------|
D|-----------------------|-----------------|-----------------|


"Take it like a man"
e|-8-8-------------|---------------------------------|
B|-----8-8-6-6-----|---------------------------------|
G|-------------5---|---------------------------------|    Play this last
D|-----------------|-3---3---x-1-1h3-3---x-1-x-1-1h3-| measure 3 more times
A|-----------------|-3---3---x-1-1h3-3---x-1-x-1-1h3-|
D|-----------------|-3---3---x-1-1h3-3---x-1-x-1-1h3-|  then, buy a synth...
Tap to rate this tab
 
# A B C D E F G H I J K L M N O P Q R S T U V W X Y Z