Song name
# A B C D E F G H I J K L M N O P Q R S T U V W X Y Z

Puscifer - Momma Sed tab

Artist: Puscifer
Song: Momma Sed
Album: "V" is for Vagina

Tabbed by: NiteFlie

Tuning: Drop D (DADGBe)


INTRO/FILL/OUTRO
Rhythm:
e|------------------------------------|
B|------------------------------------|
G|---0h1p0----------------------------|
D|---------3p1-3-----1h3-1p0----------|
A|---------------------------1--3-----|
D|-3-------------------------------6--|


VERSE
Rhythm:
e|-------------------------|
B|-------------------------|
G|-------------------------| Repeat
D|-3---1---1-1-1h3-3---1-1-|
A|-3---1---1-1-1h3-3---1-1-|
D|-3---1---1-1-1h3-3---1-1-|

Rhythm occasionally switches to:
e|--------------------|
B|--------------------|
G|--------------------| Repeat a few times
D|-------------1------|
A|-1---1---1-1-1-1-1--|
D|-1---1---1-1---1-1--|


Lead:
e|--------3----------------3--------|
B|--6-4-6---6-4-6----6-4-6---6-4-6--|
G|----------------------------------|
D|----------------------------------|
A|----------------------------------|
D|----------------------------------|



CHORUS 

Rhythm 1:
e|-------------|
B|-------------|
G|-------------| x4
D|-3--3--3-3-3-|
A|-3--3--3-3-3-|
D|-3--3--3-3-3-|
   come...

e|-------------|
B|-------------|
G|-------------| x8
D|-1--1--1-1-1-|
A|-1--1--1-1-1-|
D|-1--1--1-1-1-|
   dignity...

e|-------------|      |-----|
B|-------------|      |-----|
G|-------------| x4   |-----|
D|-3--3--3-3-3-|      |-6-6-|
A|-3--3--3-3-3-|      |-6-6-|
D|-3--3--3-3-3-|      |-6-6-|
   like a man...      (end on)


Rhythm 2: (sustain chords as long as possible)
e|-----------------------------------------------------------------------|
B|-----------------------------------------------------------------------|
G|-------5-----8----------3-----------------3----------3-------5---------|
D|-------3-----6----------1-----------------1----------1-------3---------|
A|-------3-----6----------1-----------------1----------1-------3---------|
D|-------3-----6----------1-----------------1----------1-------3---------|
 Changes come  Keep your  dignity  Take the high road  Take it like a man


Lead:
e|3-----4-3-----4-3---|
B|--4-6-----4-6-----4-|
G|--------------------| Repeat...
D|--------------------|
A|--------------------|
D|--------------------|


************************************
| Key:
| h   hammer-on
| p   pull-off
************************************
Tap to rate this tab
 
# A B C D E F G H I J K L M N O P Q R S T U V W X Y Z