Song name
# A B C D E F G H I J K L M N O P Q R S T U V W X Y Z

Puscifer - Green Valley tab

-------------------------------------------------------------------------------
			     GREEN VALLEY - Puscifer
-------------------------------------------------------------------------------

Tuning: Standard
Definitely not perfect, but I couldn't find a tab for this song anywhere online.

Intro
e|-----------------------------------------------------------|
B|-----------------------------------------------------------|
G|-----------------------------------------------------------|  
D|----8------8-------8-------------8------8------8-----------|
A|--6------6-------6-------------6------6------6-------------|
E|-----------------------------------------------------------|

Verse 1
e|-----------------------------------------------------------|
B|-----------------------------------------------------------|
G|-----------------------------------------------------------|  
D|----8------8-------8-------------8------8------8-----------|
A|--6------6-------6-------------6------6------6-------------|
E|-----------------------------------------------------------|
    "Hello stranger..."

e|-----------------------------------------------------------|
B|-----------------------------------------------------------|
G|-----------------------------------------------------------|  
D|----8------8-------8-------------8------8------8-----------|
A|--6------6-------6-------------6------6------6-------------|
E|-----------------------------------------------------------|
    "Though a stranger..."

e|-----------------------------------------------------------|
B|-----------------------------------------------------------|
G|-----------------------------------------------------------|
D|----6------6------6--------------4------4------4------4----|
A|--4------4------4--------------2------2------2-------6-6---|
E|-----------------------------------------------------------|
    "Come to sunrise..."

e|-----------------------------------------------------------|
B|-----------------------------------------------------------|
G|-----------------------------------------------------------|  
D|----8------8-------8-----4-------8------8------8------4----|
A|--6------6-------6------6-6----6------6------6-------6-6---|
E|-----------------------------------------------------------|

e|-----------------------------------------------------------|
B|-----------------------------------------------------------|
G|-----------------------------------------------------------|  
D|----8------8-------8-----4-------8------8------8-----------|
A|--6------6-------6------6-6----6------6------6-------------|
E|-----------------------------------------------------------|

Verse 2
e|-----------------------------------------------------------|
B|-----------------------------------------------------------|
G|-----------------------------------------------------------|  
D|----8------8-------8-------------8------8------8-----------|
A|--6------6-------6-------------6------6------6-------------|
E|-----------------------------------------------------------|
    "No direction but to follow..."

e|-----------------------------------------------------------|
B|-----------------------------------------------------------|
G|-----------------------------------------------------------|  
D|----8------8-------8-------------8------8------8------4----|
A|--6------6-------6-------------6------6------6-------6-6---|
E|-----------------------------------------------------------|
    "No direction but to never..."

e|-----------------------------------------------------------|
B|-----------------------------------------------------------|
G|-----------------------------------------------------------|
D|----6------6------6-----2--------4------4------4------4----|
A|--4------4------4------4-4-----2------2------2-------6-6---|
E|-----------------------------------------------------------|
    "You're a stranger..."

   Guitar 1
e|-----------------------------------------------------------|
B|-----------------------------------------------------------|
G|-----------------------------------------------------------|  X2
D|----8------8-------8-----4-------8------8------8------4----|
A|--6------6-------6------6-6----6------6------6-------6-6---|
E|-----------------------------------------------------------|

   Guitar 2 Distortion
e|-----------------------------------------------------------|
B|-----------------------------------------------------------|
G|-----------------------------------------------------------|  X2
D|--8-8x---8-8x---8-8x---8-8x---8-8x---8-8x---8-8x---8-8x----|
A|--6-6x---6-6x---6-6x---6-6x---6-6x---6-6x---6-6x---6-6x----|
E|-----------------------------------------------------------|
   "Weigh your worth..."

 Guitar 2 Heavier Distortion (with Guitar 1)
e|-----------------------------------------------------------|
B|-----------------------------------------------------------|
G|-----------------------------------------------------------|  X2
D|--8-8x---8-8x---8-8x---8-8x---8-8x---8-8x---8-8x---8-8x----|
A|--6-6x---6-6x---6-6x---6-6x---6-6x---6-6x---6-6x---6-6x----|
E|-----------------------------------------------------------|

e|-----------------------------------------------------------|
B|-----------------------------------------------------------|
G|-----------------------------------------------------------|  
D|--8-8x---8-8x---8-8x---8-8x---8-8x---8-8x---8-8x---8-8x----|
A|--6-6x---6-6x---6-6x---6-6x---6-6x---6-6x---6-6x---6-6x----|
E|-----------------------------------------------------------|
    "No direction but to follow..."

e|-----------------------------------------------------------|
B|-----------------------------------------------------------|
G|-----------------------------------------------------------|  
D|--8-8x---8-8x---8-8x---8-8x---8-8x---8-8x---8-8x---8-11x---|
A|--6-6x---6-6x---6-6x---6-6x---6-6x---6-6x---6-6x---6--9x---|
E|-----------------------------------------------------------|
    "No direction but to never..."

   *with Lead Fill from Verse 2
e|-----------------------------------------------------------|
B|-----------------------------------------------------------|
G|-----------------------------------------------------------|  
D|--6-6x---6-6x---6-6x---6-9x---4-4x---4-4x---4-4x---4-6x----|
A|--4-4x---4-4x---4-4x---4-7x---2-2x---2-2x---2-2x---2-4x----|
E|-----------------------------------------------------------|
    "You're a stranger..."

e|-----------------------------------------------------------|
B|-----------------------------------------------------------|
G|-----------------------------------------------------------|  X2
D|--8-8x---8-8x---8-8x---8-8x---8-8x---8-8x---8-8x---8-8x----|
A|--6-6x---6-6x---6-6x---6-6x---6-6x---6-6x---6-6x---6-6x----|
E|-----------------------------------------------------------|
    "Weigh your worth..."

e|-----------------------------------------------------------|
B|-----------------------------------------------------------|
G|-----------------------------------------------------------|  X2
D|--8-8x---8-8x---8-8x---8-8x---8-8x---8-8x---8-8x---8-8x----|
A|--6-6x---6-6x---6-6x---6-6x---6-6x---6-6x---6-6x---6-6x----|
E|-----------------------------------------------------------|

e|-----------------------------------------------------------|
B|-----------------------------------------------------------|
G|-----------------------------------------------------------|  
D|--8-8x---8-8x----------------------------------------------|
A|--6-6x---6-6x----------------------------------------------|
E|-----------------------------------------------------------|

Tap to rate this tab
# A B C D E F G H I J K L M N O P Q R S T U V W X Y Z