Song name
# A B C D E F G H I J K L M N O P Q R S T U V W X Y Z

Push Play - Starlight Addiction tab

This is my first tab, so some of it may be inaccurate,
but I believe that most of it is correct.  With the notes
that say to do them twice, you can get away with only strumming
them once. The song uses a lot of the same notes, so sorry for
doing only the intro, but it's easy. Once you know these tabs,
you can figure the rest of the song out real soon.

e---------------------------------------------------|
B---------------------------------------------------|
G--3---------------3-----5-----7-----5-----8-----7--|
D--3--3--5--3--1---3-----5-----7-----5-----8-----7--|
A--1--3--5--3--1---1--------------------------------|(xs5)3(xs2)5(xs2)3(xs5)6(xs2)5(xs2)
E-----1--3--1--1------------------------------------|


e------------------------------------------------------|
B------------------------------------------------------|
G------------------------------------------------------|
D--5-----7-----8-----3---------------------------------|
A--5-----7-----8-----3---------------------------------|
E--3(xs5)5(xs2)6(xs2)1(xs5)----------------------------|
Tap to rate this tab
# A B C D E F G H I J K L M N O P Q R S T U V W X Y Z