Guitaretab - guitar tabs
Song name
# A B C D E F G H I J K L M N O P Q R S T U V W X Y Z

Push Play - The Life tab

-------------------------------------------------------------------------------
			     THE LIFE - Push Play
-------------------------------------------------------------------------------
Tabbed by: Hannah
Email: HMG234@aol.com
Tuning: Standard

This is for the .00001% of the ultimate-guitar.com clientele that likes Push Play.

I like the play it acoustic, in which case I just change the power chords into open 
- C, G, and Am in place of C5, G5, and A5.

Intro: C5

Verse:
C5
They say we're wasting time

Walking like we're blind

Our look Trying to find the reason why
    A5           G5       C5
Our lines are so unpredictable
C5
My life is not for sale

This one never fails
C5
Not this time I won't fail
                A5
This is our one shot
          G5            C5
To break free from this lie

Chorus:
            C5
This is the life
            G5
This is the dream
         C5
And it's nothing as it seems
        A5
Every minute
       G5          C5
Every second is so real


Then play the rest of it with the same chords.
[ Tab from: http://www.guitaretab.com/p/push-play/167012.html ]
Verse:
Now we're on the road
Playing sold out shows
And now they don't know
Who we are tonight
The crowd screams for one more

CHORUS X 2

Solo:

e|---------------------------------------------------------------------------|
B|---------------------------------------------------------------------------|
G|----------/12---------/12---------10-9-------------------9h10-10h12p10-9---|
D|-10p9h10------10p9h10------10-10-------10-10/12-1010h12-------------------|
A|---------------------------------------------------------------------------|
E|---------------------------------------------------------------------------|

e|---------------------------------------------------------------------------|
B|---------------------------------------------------------------------------|
G|-10~-9--------9/10~-9------------------------------------------------------|
D|-------10~-10---------10~-10/12-10~12b-------------------------------------|
A|---------------------------------------------------------------------------|
E|---------------------------------------------------------------------------|

CHORUS X 3

| /  slide up
| \  slide down
| h  hammer-on
| p  pull-off
| ~  vibrato
| +  harmonic
| x  Mute note
===============================================================================
Related for The Life tab