Song name
# A B C D E F G H I J K L M N O P Q R S T U V W X Y Z

Pussycat And The Dirty Johnsons - Orgasmic Pizza tab

-------------------------------------------------------------------------------
                        Orgasmic Pizza - Pussycat & the Dirty Johnsons
-------------------------------------------------------------------------------
Tabbed by: FasterThanWar
E-mail:

Tuning: Standard

Intro:

Guitar 1: (With short delay)
e|------------------------------------------------|
B|------------------------------------------------|
G|------------------------------------------------|
D|------------------------------------------------|
A|------------------------------------------------|
E|--0--0-0-3-0-3-5-0---0--0-0-3-0-3-5-0-----------|

Guitar 2:

e|--0~-----------------0~----------------------|
B|--0~-----------------0~----------------------|
G|--3~-----------------3~----------------------|
D|--2~-----------------2~----------------------|
A|--2~-----------------2~----------------------|
E|--0~-----------------0~----------------------|

Guitar 2 (Intro Cont):
e|------------------0--------------------------|
B|------------------0--------------------------|
G|----------------2-3--------------------------|
D|--2~-2-2--2-2-2-2-2--------------------------|
A|--2~-2-2--2-2-2-0-2--------------------------|
E|--0--0-0--3-0-3---0--------------------------|

Verse:

Guitar 1: (With short delay)

(I've been waiting...)
e|------------------------------------------------|
B|------------------------------------------------|
G|------------------------------------------------|
D|------------------------------------------------|
A|------------------------------------------------|
E|--0--0-0-3-0-3-5-0---0--0-0-3-0-3-5-0-----------|
    Pm --------------------------------^

Guitar 2: 
e|--0---------------0--------------------------|
B|--0---------------0--------------------------|
G|--3-------------2-3--------------------------|
D|--2~-2-2--2-2-2-2-2--------------------------|
A|--2~-2-2--2-2-2-0-2--------------------------|
E|--0--0-0--3-0-3---0--------------------------|

Chorus (Both guitars): 

(Orgasmic...)
e|----------------------------------------------|
B|----------------------------------------------|
G|----------------------------------------------|
D|-5--2-2---5--2-2------------------------------|
A|-5--2-2---5--2-2------------------------------|
E|-3--0-0---3--0-0------------------------------|

(Ooh ooh)
e|---------------------|
B|---------------------|
G|---------------------|
D|-2-------------------|
A|-2-------------------|
E|-0-------------------|

(Repeat verse)

(Repeat chorus)

(Repeat verse)

(Repeat chorus)

(Repeat verse, steady increase in tempo)

http://pussycatandthedirtyjohnsons.moonfruit.com/
Tap to rate this tab
# A B C D E F G H I J K L M N O P Q R S T U V W X Y Z