Guitaretab - guitar tabs
Song name
# A B C D E F G H I J K L M N O P Q R S T U V W X Y Z

Pussycat Dolls - Jai Ho tab

JAI HO..

e------------------------------------------------------------------------|
B------------------------------------------------------------------------|
G----------------------------88--------------3335557778-8_10---10_13--12-|
D--5655655655655655------65-35566----------------------------------------|(2x)
A------------------------------------------------------------------------|
E------------------------------------------------------------------------|
music ( play it very fast 8_10 and 10_13 take slur there )


e------------------------------------------------|
B------------------------------------------------|
G---577---9------7----7_12-----------------------|
D------------------------------------------------|
A------------------------------------------------|
E------------------------------------------------|
jai hoooooo jai haoooooooooo (chorus)

[ Tab from: http://www.guitaretab.com/p/pussycat-dolls/188479.html ]
e----------------------------------------------------------|
B------------------------------------------------5-8-7-5---|
G---7--7--77--7--7--9955----------5--5--5--5--5-5-------7-|
D----7--7--7--7--7--------------------5--5--5--5-----------|
A----------------------------------------------------------|
E----------------------------------------------------------|
catch me catch me catch me......


e------------------------------------------------------------------------|
B------------------------------------------------------------------------|
G----------------------------88--------------3335557778-8_10---10_13--12-|
D--5655655655655655------65-35566----------------------------------------|(2x)
A------------------------------------------------------------------------|
E------------------------------------------------------------------------|
music ( play it very fast 8_10 and 10_13 take slur there )



Related for Jai Ho tab