Song name
# A B C D E F G H I J K L M N O P Q R S T U V W X Y Z

Pussycat The Dirty Johnsons - Trouble With The Devil tab

-------------------------------------------------------------------------------
                Trouble With The Devil - Pussycat & The Dirty Johnsons
-------------------------------------------------------------------------------
Tabbed by: FasterThanWar
E-mail:

Tuning: Standard

Intro/Pre-Chorus:
e|---------------------------------------------------------------------|
B|---------------------------------------------------------------------|
G|---------------------------------------------------------------------|
D|---------------------------------------------------------------------|
A|-2-3-------------2-3--------------3-2-2-2-2-2-2-3--------------------|
E|-----2-2-2-2-2-2-----2-2-2-2-2-2------------------2-2-2-2-2-2--------|


e|---------------------------------------------------------------|
B|---------------------------------------------------------------|
G|---------------------------------------------------------------|
D|-4-4-4-4-4--4-4-4-4-4-2-2--4-4-4-4-4---------------------------|
A|-4-4-4-4-4--4-4-4-4-4-2-2--4-4-4-4-4---------------------------|
E|-2-2-2-2-0--2-2-2-2-2-0-0--2-2-2-2-0---------------------------|

Verse: 
(The Devil's got Angel eyes...)
e|------------------------0---------------------------------------|
B|------------------------0---------------------------------------|
G|------------------------3---------------------------------------|
D|-4-4-4-4-4--4-4-4-4-4-2-2--4-4-4-4-4----------------------------|
A|-4-4-4-4-4--4-4-4-4-4-2-2--4-4-4-4-4----------------------------|
E|-2-2-2-2-0--2-2-2-2-2-0-0--2-2-2-2-0----------------------------|
                          ^
(The Devil got me hypnotized...)
e|------------------------------------------------------------------|
B|------------------------------------------------------------------|
G|---------------------------7^-------------------------------------|
D|-4-4-4-4-4--4-4-4-4-4-2-2-----4-4-4-4-4---------------------------|
A|-4-4-4-4-4--4-4-4-4-4-2-2-----4-4-4-4-4---------------------------|
E|-2-2-2-2-0--2-2-2-2-2-0-0-----2-2-2-2-0---------------------------|

Chorus:
(I got trouble with the Devil...)
e|-----------------------------------------------------------|
B|-----------------------------------------------------------|
G|-----------------------------------------------------------|
D|-2-2-2-2--4-4-4-4-4----------------------------------------|
A|-2-2-2-2--4-4-4-4-4----------------------------------------|
E|-0-0-0-0--2-2-2-2-2----------------------------------------|
    

Bridge/solo:

e|------------------------------------------------------------|
B|------------------------------------------------------------|
G|---4-4--6--4-4-4--7-6--4-4--7-6---9-------------------------|
D|---4-4--6--4-4-4--7-6--4-4--7-6---9-------------------------|
A|------------------------------------------------------------|
E|------------------------------------------------------------|

http://pussycatandthedirtyjohnsons.moonfruit.com/
Tap to rate this tab
 
# A B C D E F G H I J K L M N O P Q R S T U V W X Y Z