Guitaretab - guitar tabs
Song name
# A B C D E F G H I J K L M N O P Q R S T U V W X Y Z

Putrid Pile - Merciless Homicide tab

.  - palm mute
/  - slide up to
\  - slide down to

Tuning E A D G B e

|-------------------------------------------------------------------|
|-------------------------------------------------------------------|
|-------------------------------------------------------------------|
|-------------------------------------------------------------------|
|-2-2-2-2-4-4-4-4-5-5-4-4-5-5-1010-9-9-9-9-9-9-9-9-1010-5-5-4-4-----|
|-0-0-0-0-2-2-2-2-3-3-2-2-3-3-8--8-7-7-7-7-7-7-7-7-8--8-3-3-2-2-----|

|-------------------------------------------------------------------|
|-------------------------------------------------------------------|
|-------------------------------------------------------------------|
|-------------------------------------------------------------------|
|-2-2-2-2-4-4-4-4-5-5-4-4-5-5-1010-9-9-9-9-9-9-9-9--2-4-2--5-9------|
|-0-0-0-0-2-2-2-2-3-3-2-2-3-3-8--8-7-7-7-7-7-7-7-7--0-2-0--3-7------|
                                                    . . .  . .
|-------------------------------------------------------------------|
|-------------------------------------------------------------------|
|-------------------------------------------------------------------|
|-------------------------------------------------------------------|
|-2-2-2-2-4-4-4-4-5-5-4-4-5-5-1010-9-9-9-9-9-9-9-9-1010-5-5-4-4-----|
|-0-0-0-0-2-2-2-2-3-3-2-2-3-3-8--8-7-7-7-7-7-7-7-7-8--8-3-3-2-2-----|

|-------------------------------------------------------------------|
|-------------------------------------------------------------------|
|-------------------------------------------------------------------|
|-------------------------------------------------------------------|
|-2-2-2-2-4-4-4-4-5-5-4-4-5-5-1010-9-9-9-9-9-9-9-9------------------|
|-0-0-0-0-2-2-2-2-3-3-2-2-3-3-8--8-7-7-7-7-7-7-7-7------------------|

|-------------------------------------------------------------------|
|-------------------------------------------------------------------|
|-------------------------------------------------------------------|
|-------------------------------------------------------------------|
|-2-4-2--5-9--2-4-2--8\7-5/6----------------------------------------|
|-0-2-0--3-7--0-2-0--6\5-3/4----------------------------------------|(8x)
  . . .  .    . . .
|-------------------------------------------------------------------|
|-------------------------------------------------------------------|
|-------------------------------------------------------------------|
|-------------------------------------------------------------------|
|-2-2-2-2-4-4-4-4-5-5-4-4-5-5-1010-9-9-9-9-9-9-9-9-1010-5-5-4-4-----|
|-0-0-0-0-2-2-2-2-3-3-2-2-3-3-8--8-7-7-7-7-7-7-7-7-8--8-3-3-2-2-----|

|-------------------------------------------------------------------|
|-------------------------------------------------------------------|
|-------------------------------------------------------------------|
|-------------------------------------------------------------------|
|-2-2-2-2-4-4-4-4-5-5-4-4-5-5-1010-9-9-9-9-9-9-9-9--2-4-2--5-9------|
|-0-0-0-0-2-2-2-2-3-3-2-2-3-3-8--8-7-7-7-7-7-7-7-7--0-2-0--3-7------|
                                                    . . .  . .
|-------------------------------------------------------------------|
|-------------------------------------------------------------------|
|-------------------------------------------------------------------|
|-------------------------------------------------------------------|
|-2-2-2-2-4-4-4-4-5-5-4-4-5-5-1010-9-9-9-9-9-9-9-9-1010-5-5-4-4-----|
|-0-0-0-0-2-2-2-2-3-3-2-2-3-3-8--8-7-7-7-7-7-7-7-7-8--8-3-3-2-2-----|

|-------------------------------------------------------------------|
|-------------------------------------------------------------------|
|-------------------------------------------------------------------|
|-------------------------------------------------------------------|
|-2-2-2-2-4-4-4-4-5-5-4-4-5-5-1010-9-9-9-9-9-9-9-9------------------|
|-0-0-0-0-2-2-2-2-3-3-2-2-3-3-8--8-7-7-7-7-7-7-7-7------------------|

|-------------------------------------------------------------------|
|-------------------------------------------------------------------|
|-------------------------------------------------------------------|
|-------------------------------------------------------------------|
|-2-4-2--5-9--2-4-2--8\7-5/6-----------------------------------------|
|-0-2-0--3-7--0-2-0--6\5-3/4-----------------------------------------|(8x)
  . . .  .    . . .
|-------------------------------------------------------------------|
|-------------------------------------------------------------------|
|-------------------------------------------------------------------|
|-------------------------------------------------------------------|
|-------------------------------------------------------------------|
|-9-9-9-9-9-9-9-9-10-10-10-10-10-10-10-10-6-6-6-6-6-6-6-6-----------|

|-------------------------------------------------------------------|
|-------------------------------------------------------------------|
|-------------------------------------------------------------------|
|-------------------------------------------------------------------|
|-------------------------------------------------------------------|
|-7-7-9-9-6-6-8-7-7-------------------------------------------------|(4x)
[ Tab from: http://www.guitaretab.com/p/putrid-pile/90248.html ]
|-------------------------------------------------------------------|
|-------------------------------------------------------------------|
|-------------------------------------------------------------------|
|-------------------------------------------------------------------|
|---2---3---5---8---------------------------------------------------|
|-0---1---3---6---2-2-2-2-2-8-7-7-7-7-3-3-3-3-----------------------|(4x)

|-------------------------------------------------------------------|
|-------------------------------------------------------------------|
|-------------------------------------------------------------------|
|-------------------------------------------------------------------|
|-------------------------------------------------------------------|
|-9-9-9-9-9-9-9-9-10-10-10-10-10-10-10-10-6-6-6-6-6-6-6-6-----------|

|-------------------------------------------------------------------|
|-------------------------------------------------------------------|
|-------------------------------------------------------------------|
|-------------------------------------------------------------------|
|-------------------------------------------------------------------|
|-7-7-9-9-6-6-8-7-7-------------------------------------------------|(2x)

|-------------------------------------------------------------------|
|-------------------------------------------------------------------|
|-------------------------------------------------------------------|
|-------------------------------------------------------------------|
|---2---3---5---8---------------------------------------------------|
|-0---1---3---6---2-2-2-2-2-8-7-7-7-7-3-3-3-3-----------------------|(4x)


|-------------------------------------------------------------------|
|-------------------------------------------------------------------|
|-------------------------------------------------------------------|
|-------------------------------------------------------------------|
|-------------------------------------------------------------------|
|-9-9-9-9-9-9-9-9-10-10-10-10-10-10-10-10-6-6-6-6-6-6-6-6-----------|

|-------------------------------------------------------------------|
|-------------------------------------------------------------------|
|-------------------------------------------------------------------|
|-------------------------------------------------------------------|
|-------------------------------------------------------------------|
|-7-7-9-9-6-6-8-7-7-------------------------------------------------|(4x)

|-------------------------------------------------------------------|
|-------------------------------------------------------------------|
|-------------------------------------------------------------------|
|-------------------------------------------------------------------|
|-2-2-2-2-4-2-2-2--2--2--4-4-7--2-2-2-2-4-2-2-2-2--2--2--3-4-3------|
|-0-0-0-0-2-0-0-0--0--0--2-2-5--0-0-0-0-2-0-0-0-0--0--0--1-2-1------|(4x)
  . . . . . . . .  .  .  . .    . . . . . . . . .  .  .
|-------------------------------------------------------------------|
|-------------------------------------------------------------------|
|-------------------------------------------------------------------|
|-------------------------------------------------------------------|
|-2-2-2-2-2-2-2-2-4-4-5-5-5-5-4-4-4-4--2-2-2-2-4-2-2-2-2--2--2--4-4-7|
|-0-0-0-0-0-0-0-0-2-2-3-3-3-3-2-2-2-2--0-0-0-0-2-0-0-0-0--0--0--2-2-5|
                                       . . . . . . . . .  .  .  . .
|-------------------------------------------------------------------|
|-------------------------------------------------------------------|
|-------------------------------------------------------------------|
|-------------------------------------------------------------------|
|-2-2-2-2-2-2-2-2-4-4-5-5-4-4-5-5-5-5--2-2-2-2-4-2-2-2-2--2--2--3-4-3|
|-0-0-0-0-0-0-0-0-2-2-3-3-2-2-3-3-3-3--0-0-0-0-2-0-0-0-0--0--0--1-2-1|
                                       . . . . . . . . .  .  .
|-------------------------------------------------------------------|
|-------------------------------------------------------------------|
|-------------------------------------------------------------------|
|-------------------------------------------------------------------|
|-2-2-2-2-2-2-2-2-4-4-5-5-5-5-4-4-4-4--2-2-2-2-4-2-2-2-2--2--2--4-4-7|
|-0-0-0-0-0-0-0-0-2-2-3-3-3-3-2-2-2-2--0-0-0-0-2-0-0-0-0--0--0--2-2-5|
                                       . . . . . . . . .  .  .  . .
|-------------------------------------------------------------------|
|-------------------------------------------------------------------|
|-------------------------------------------------------------------|
|-------------------------------------------------------------------|
|-2-2-2-2-2-2-2-2-4-4-5-5-4-4-5-5-5-5--2-2-2-2-4-2-2-2-2--2--2--4-4-7|
|-0-0-0-0-0-0-0-0-2-2-3-3-2-2-3-3-3-3--0-0-0-0-2-0-0-0-0--0--0--2-2-5|
                                       . . . . . . . . .  .  .  . .
|-------------------------------------------------------------------|
|-------------------------------------------------------------------|
|-------------------------------------------------------------------|
|-------------------------------------------------------------------|
|-2-2-2-2-4-2-2-2--2--2--4-4-7--2-2-2-2-4-2-2-2-2--2--2--3-4-3------|
|-0-0-0-0-2-0-0-0--0--0--2-4-5--0-0-0-0-2-0-0-0-0--0--0--1-2-1------|(2x)
  . . . . . . . .  .  .  . .    . . . . . . . . .  .  .

www.putridpile.com/ 
Related for Merciless Homicide tab