Song name
# A B C D E F G H I J K L M N O P Q R S T U V W X Y Z

Pyramaze - Caramons Poem tab

"Caramon's Poem" - PYRAMAZE   http://www.pyramaze.com

**NEW song that will appear on the new album IMMORTAL (check out MySpace for this one 
the other new track).**

This is my first tab and I tabbed it by ear, so it may not be 100% right, but it's 
close. You'll have to listen for the patterns of the riffs as they are not tabbed for correct 
signature. This song is EPIC as hell!


Riff 1a (Intro):

Guitar 1
E|----------------------------|
B|----------------------------|
G|--9-9-10-10-7-7-9-9-10--10--|
D|----------------------------|
A|----------------------------|
D|----------------------------|

Guitar 2 (enters after 4 times):
E|-------------------------------------------------------------------------|
B|-------------------------------------------------------------------------|
G|--7-77-7--7-77-7777--7-77-7--7-77-7777---5-55-5--5-55-5555--3-33-3--3333-|
D|--7-77-7--7-77-7777--7-77-7--7-77-7777---5-55-5--5-55-5555--3-33-3--3333-|
A|--5-55-5--5-55-5555--5-55-5--5-55-5555---3-33-3--3-33-3333--1-11-1--1111-|
D|-------------------------------------------------------------------------|

Riff 1b:

Guitar 1:
E|------------------------------------------------|
B|------------------------------------------------|
G|--7--9--10----9--10--12----7--9--10----9h10p9~--|
D|------------------------------------------------|
A|------------------------------------------------|
D|------------------------------------------------|

Guitar 2:                                    2nd Ending
E|------------------------------------------|-----|
B|------------------------------------------|-----|
G|--7--9--10----9--10--12----7--9--10----9--|--7--|
D|--7--9--10----9--10--12----7--9--10----9--|--7--|
A|--5--7--8-----7--10--12----5--7--8-----7--|--5--|
D|------------------------------------------|-----|

Riff 2(Verse):

Guitars 1&2
E|-----------------------------------------------------------|
B|-----------------------------------------------------------|
G|-----7-----7-7-----7-----7-7-----10-----10-----7-----7-7---|
D|-----7-----7-7-----8-----8-8-----10-----10-----8-----8-8---|
A|-----5-----5-5-----5-----5-5-----8------8------5-----5-5---|
D|-0-00--0-00----0-00--0-00----0-00---0-00---0-00--0-00------|

Riff 3(Pre-chorus):

Guitars 1&2
E|-------------------------------------|
B|-------------------------------------|
G|--2--3-3/5-5/7-7--------7-----7------|
D|--2--3-3/5-5/7-7----7-----7-----7----|
A|--0--1-1/3-3/5-5--5---5-----5-----5--|
D|-------------------------------------|

Riff 4(Chorus):

Guitars 1&2
E|--------------------------------|
B|--------------------------------|
G|--7-7--5-5--5/7-77------5/7--3--|
D|--7-7--5-5--5/7-77------5/7--3--|
A|--5-5--3-3--3/5-55------3/5--1--|
D|--------------------------------|
**Note: This is the one riff that I am not too sure about. The keyboard in the 
makes the guitar part hard to distinguish. Sorry**

Pattern:
Riff 1a x12
Riff 1b x2
Riff 2 x2
Riff 3 x4
Riff 4 x4
Riff 1a x8 (guitar 2 plays the full 8)
Riff 2 x2
Riff 3 x4
Riff 4 x4


Key:
h=hammer-on
p=pull-off
/=slide up
~=vibrato
Tap to rate this tab
# A B C D E F G H I J K L M N O P Q R S T U V W X Y Z