Song name
# A B C D E F G H I J K L M N O P Q R S T U V W X Y Z

Pyromatix - New Soundtrack tab

  LISTEN UP THE PYROMATIX IS A BAND STAIT OUTA' OTTAWA,CAN.THEY RULE !
I DON'T KNOW THE WHOLE SONG JUST THE INTRO SO LISTEN UP.
    Intro.Gtr#1(singer)
    ------------------------------------|
    ------------------------------------|
    ------------------------------------|
    ------------------------------------|
    ------------------------------------|
    -0-0-3-1-0-1-2---0-0-3-1-0-1-2------|

    ------------------------------------|
    ------------------------------------|
    ------------------------------------|
    ------------------------------------|
    ------------------------------------|
    -0-0-3-1-0-1-3---0-0-3-1-0-1-0------|

    Gtr#2(HEAVILY MUTED AND SUPERFAST!)
    ------------------------------------|
    ------------------------------------|
    ------------------------------------|
    ------------------------------------|
    -0-0-5-3-0-3-4---0-0-5-3-0-3-4------|
    ------------------------------------|

    ------------------------------------|
    ------------------------------------|
    ------------------------------------|
    -------------------------0-3-0------|
    -0-0-5-3-0-3-5---0-0-5-3-0-3-0------|
    ------------------------------------|

    ***MAKE NOTE!***
   GUITAR#2 GOESE SOOOO FAST THAT IT ENDS RITE BEFORE GUITAR#1 STARTS IT'S SECONDE BAR!
Tap to rate this tab
# A B C D E F G H I J K L M N O P Q R S T U V W X Y Z