Song name
# A B C D E F G H I J K L M N O P Q R S T U V W X Y Z

Pyyramids - Dont Go tab

Watch this video to get a sense of the rhythm of the song
http://www.youtube.com/watch?v=WykyO5yq7hA

Chords used:
D#m      668876
B            799877
Bdim7    789797
F#          244322
A#m      688666

e ------------------------------------------------------------------------|
B ------------------------------------------------------------------------|
G ------------------------------------------------------------------------|
D -----------9-9-9-9------------------------------------------------------|
A ---6-6-6-6---------8-8-8-8-9-9-9-9--6-6-6-6--2-2-2-2--------------------|
E -------------------------------------------------------1-1-1-1-2-2-2-2--|
****repeat this pattern for first two verses*****

[v1]
I can't stop these wall from falling down
Can't keep you here, can't pull you near to stand beside me.

[v2]
And I cant will you back to hear the sound
The empty room, the memory looms
you left behind

e ------------------------------------------------------------------------|
B ------------------------------------------------------------------------|
G ------------------------------------------------------------------------|  2X
D ------------------------------------------------------------------------|
A -----------------------------------6-6-6-6-6-6-6-6----------------------|
E -9-9-9-9-9-9-9-9--7-7-7-7-7-7-7-7------------------7-7-7-7-7-7-7-7------|
*****play this pattern for the first chorus*****

[Chorus]
oh, the people are watching, looking and stopping
they all know
and oh, we're almost over, broken and sober
they all know

A-6-x-6-x-6-x- 6-6---  [[mute on the x's for the "dont go" parts]]
please don't go, don't go


{play chords for the rest of the song}


D#m  B                   Bdim7                F#
             And I can't make it right to save it all
D#m    B                      Bdim7                F#
    can't tell a lie, can't say good bye to fill a feeling



A#m                        B                               D#m
oh, the people are watching, looking and stopping
             B
they all know
    A#m                        B                        D#m
and oh, we're almost over, broken and sober
            B
they all know
                   D#m  D#m   B    B         F#   F#
please don't go,             don't go
                   D#m  D#m   B    B         F#   F#
please don't go,             don't go

D#m  B      Bdim7   F#
      and oh,   don't go
D#m    B                    Bdim7       F#
   it can't be over my heart says no



A#m                        B                               D#m
oh, the people are watching, looking and stopping
             B
they all know
    A#m                        B                        D#m
and oh, we're almost over, broken and sober
            B
they all know

A#m                        B                               D#m
oh, the people are watching, looking and stopping
             B
they all know
    A#m                        B                        D#m
and oh, we're almost over, broken and sober
            B
they all know

                   D#m  D#m         D#m
please don't go,             don't go
                   D#m  D#m         D#m
please don't go,             don't go



http://pyyramids.com/
Tap to rate this tab
# A B C D E F G H I J K L M N O P Q R S T U V W X Y Z