Song name
# A B C D E F G H I J K L M N O P Q R S T U V W X Y Z

Q And Not U - Soft Pyramids tab

Q and not U - Soft Pyramids

Part 1:

e|---------------------------------------------------------------------------|
B|------------------------------------------7~~~~~~~~~~~~~-------------------|
G|-7~~~~~~~~~~~~~--------------5~~~~~~~~~~~~---------------------------------|
D|---------------7~~~~~~~~~~~~~----------------------------------------------|
A|---------------------------------------------------------------------------|
E|---------------------------------------------------------------------------|
   Harm. (let ring)............

   (Soft pyramids evaporate at daylight...)

Part 2:

e|---------------------------------------------------------------------------|
B|---------------------------------------------------------------------------|
G|-7-------------------------------------------------------------------------|
D|-8-------------7-------------10-----------8--------------------------------|
A|---------------8-------------11-----------10-------------------------------|
E|---------------------------------------------------------------------------|

   (This soft is building the softest buildings...)

Part 3

e|-x-x-x-x-x-x-x-x-x-x-x-x---------------------------------------------------|
B|-x-x-x-x-x-x-x-x-x-x-x-x---------------------------------------------------|
G|-x-x-x-x-x-x-x-x-x-x-x-x---------------------------------------------------|
D|-x-x-x-x-x-x-x-x-x-x-x-x---------------------------------------------------|
A|-x-x-x-x-x-x-x-x-x-x-x-x---------------------------------------------------|
E|-x-x-x-x-x-x-x-x-x-x-x-x---------------------------------------------------|

   (...the brightest cities overnight)

Part 4:

e|---------------------------------------------------------------------------|
B|---------------------------------------------------------------------------|
G|-7-7---7-7-7---------------------------------------------------------------|
D|-8-8---8-8-8-7-8---7--7-7-10-10---10--10-10-8--8----8---8--8---------------|
A|-------------8-7---8--8-8-11-11---11--11-11-10-10---10--10-10--------------|
E|---------------------------------------------------------------------------|

   (Select a color for your chequelist)

Part 5:

e|----------9/10------9h10p9--------8s10-------------------------------------|
B|-8-------------------------8s3---------------------------------------------|
G|----------------------------------5s7--------------------------------------|
D|---------------------------------------------------------------------------|
A|---------------------------------------------------------------------------|
E|---------------------------------------------------------------------------|

   (Na na na...)

Part 6 (transcribed for guitar):

e|---------------------------------------------------------------------------|
B|-11-11-11---11-11-13-13-15-13----------------------------------------------|
G|----------------------------------10-12-12---10-12-12-10-12-10-------------|
D|---------------------------------------------------------------------------|
A|---------------------------------------------------------------------------|
E|---------------------------------------------------------------------------|
   
   (clue me in...)


Order:

Pt. 1
Pt. 2
Pt. 3
Pt. 4
Pt. 5
Pt. 1 (slowed down)
Pt. 6 (w/pt 1, then pt. 4 backing up melody)

From Josh
iamjosh@vt.edu
Tap to rate this tab
 
# A B C D E F G H I J K L M N O P Q R S T U V W X Y Z