Song name
# A B C D E F G H I J K L M N O P Q R S T U V W X Y Z

Q Lazzarus - Goodbye Horses tab

Artist: Q Lazzarus
Song: Goodbye Horses
Tuning: EADGBe

specific timings used with this youtube video:
http://www.youtube.com/watch?v=X_DVS_303kQ


Synth/Bass/Guitar
e|-------------------|
B|-------------------|
G|-------------------|
D|----------2--------|
A|--3----------------|
E|-------------------|

Guitar
e|---------------------------------------------------------------------|
B|---------------17b~--18b~--17b~--18b~--17b-18b------------17b~--17b~-|
G|--17b~--17b~-----------------------------------17b~--17b~------------|
D|---------------------------------------------------------------------|
A|---------------------------------------------------------------------|
E|---------------------------------------------------------------------|

e|-----------------------------------------------|
B|---------------17b~--18b~--17b~--18b~--17b-18b-|
G|--17b~--17b~-----------------------------------|
D|-----------------------------------------------|
A|-----------------------------------------------|
E|-----------------------------------------------|

Use your loop or share with another player. The exact same thing with additional notes 
on e string. You will have to get the timing right.
0:36
e|----15--17~--15-15--17~---15--15--17~------15-15--17---15-17--15-15-17--|
B|--------------------------------------17b~--------------17b~------------|
G|----17b~---------------17b~---------------------------------------------|
D|------------------------------------------------------------------------|
A|------------------------------------------------------------------------|
E|------------------------------------------------------------------------|


significant change 3:10 a turnaround in the chorus
e|----------------------|
B|----------------------|
G|--12-----9------------|
D|---------------10-----|
A|----------------------|
E|----------------------|




significant change 3:40 with Synth/Bass/Guitar
e|-------------------|
B|-------------------|
G|-------------------|
D|--3--2--3--2-------|
A|----------------3--|
E|-------------------|

also significant change at 3:40 with Guitar
e|---------------------------------------------------------|
B|---------------------------------------------------------|
G|--12-----9--------------9~-----------9~---12-----9-------|
D|---------------10~-----------10~----------------------10-|
A|---------------------------------------------------------|
E|---------------------------------------------------------|
Tap to rate this tab
# A B C D E F G H I J K L M N O P Q R S T U V W X Y Z