Song name
# A B C D E F G H I J K L M N O P Q R S T U V W X Y Z

Qrockmadam - Grenzen tab

Artist: Qrockmadam
Song: Grenzen
Album: Eurokids 2005
--------------------------------------------------------------------------------


Intro, Verse, Chorus
---------------------

     E    A   C    D     E
e ---0----2-------------------|I
B ---0----2-------------------|I
G ---1----2---5----7-----9----|I
D ---2----2---5----7-----9----|I
A ---2----0---3----5-----7----|I
E ---0------------------------|I

Pre-Chorus
-----------

     C     D     C     D
e ----------------------------|
B ----------------------------|
G ---5-----7-----5-----7------|
D ---5-----7-----5-----7------|
A ---3-----5-----3-----5------|
E ----------------------------|

Bridge
-------

     C    G    C    G    A    B    Bb    C
e -----------------------2---------------------|
B -----------------------2---------------------|
G ---5---------5---------2----4----3-----5-----|
D ---5----5----5----5----2----4----3-----5-----|
A ---3----5----3----5----0----2----1-----3-----|
E --------3---------3--------------------------|


Questions: darkfurby@gmail.com
Tap to rate this tab
# A B C D E F G H I J K L M N O P Q R S T U V W X Y Z