Song name
# A B C D E F G H I J K L M N O P Q R S T U V W X Y Z

Quadron - Hey Love Acoustic tab

Artist: Quadron 
Song: Hey Love
Album: Single
Tuning: Standard

Intro

e |---1-----0--------x-----|
B |---1-----1--------5-----|
G |---2-----2---or---5-----|
D |---3-----2--------5-----|
A |---3-----0--------5-----|    
E |---1-----0--------5-----|

Verse 1

e |---5-----0--------x-----|
B |---6-----1--------5-----|
G |---7-----2--------5-----|
D |---7-----2---or---5-----|
A |---5-----0--------x-----|    
E |---x-----0--------5-----|

Hey love, what's going on in here? 
You're ruthless like a stone 
Hey love, why you don't seem to care? 
It痴 to you I belong 
Trying my best not to make this an insult 
But blaming you I despair 
Hey love, what's going on in here? 
You brutalize my soul 

Chorus

e |---x----1----x----x----x---|
B |---3----1----5----10---5---|
G |---3----2----5----10---5---|
D |---3----3----5----10---5---|
A |---x----3----x----10---x---|         
E |---3----1----5----10---5---|

Promise the best is yet to come 
Oh, please tell me the truth 
When will the two of us be one? 
Oh, please tell me the truth 
So I can prove that I知 the one 
I値l prove that I知 the one 
I値l prove that I知 the one 
I値l prove 
Oh, please tell me the truth 
So I can prove that I'm the one 

Verse 2

e |---5-----0--------x-----|
B |---6-----1--------5-----|
G |---7-----2--------5-----|
D |---7-----2---or---5-----|
A |---5-----0--------x-----|    
E |---x-----0--------5-----|

Hey love, I've been a sad affair 
And restless for your charm 
Hey love, do you really think it's fair? 
This search, it's been so long 
Crying for reasons, and try to believe 
That I'm too young to fall in love 
But hey love, what's going on in here? 
You brutalize my soul 

Chorus 

Bridge

e |--x----5-----x----------|
B |--3----6-----5----------|
G |--3----7-----5----------|
D |--3----7-----5----------|
A |--x----5-----x----------|    
E |--3----x-----5----------|

But if you really want my life 
You got to show me 
Only me waiting in the dark for you 

Chorus

Outro

e |---x----1----x----x----x---|
B |---3----1----5----10---5---|
G |---3----2----5----10---5---|
D |---3----3----5----10---5---|
A |---x----3----x----x----x---|         
E |---3----1----5----10---5---|
Tap to rate this tab
# A B C D E F G H I J K L M N O P Q R S T U V W X Y Z