Song name
# A B C D E F G H I J K L M N O P Q R S T U V W X Y Z

Quarashi - Stick Em Up tab

  Guitartabs for Stick 'Em Up

  Stick'em up
  Quarashi
  Jinx

Main riff:
--------------------------------------------
--------------------------------------------
--------------------------------------------
------3-1-3-1-3-1-3------3-1-3-1-3-1-3------
--------------------------------------------
---1-----------------4-1----------------4---

2nd guitar:
Intro:
---2--2---2--2---
---1--1---1--1---
-----------------
-----------------
-----------------
-----------------

2nd Riff:
---------------------
---------------------
---------------------
---3-x---3-3---3-3---
---3-x---3-3---3-3---
---1-x---1-1---1-1---

3 Riff:
---------------
---------------
---------------
---3-3---x-3---
---3-3---x-3---
---1-1---x-1---

this is taken from the quarashi website www.quarashi.tk and shud be 100% cerecct
Tap to rate this tab
 
# A B C D E F G H I J K L M N O P Q R S T U V W X Y Z