Song name
# A B C D E F G H I J K L M N O P Q R S T U V W X Y Z

Quasi - Only Success Can Fail Me Now tab

Credit goes to this site.
http://roxichord.tripod.com/roxichord.html
I'm uploading them all,
FOR GREAT JUSTICE.

ONLY SUCCESS CAN FAIL ME NOW
by Sam Coomes

Intro:

The intro is based on the chords E  G#m and A and at one point G#
Its not right but its the basics and its sounds kinda improvised so just have a go!

(Let ring through out)
e|-4---------------------------------------------------------------------7---5-4-2-3b--|
B|----5\\\\\---------4-5----5--8bbbbbb---9-----------------4-5-------------------------|
G|------4\\\\-4--4-6-----6-----------------9\\\\--4----4-6---------6--4----------------|
D|-------------------------------------------9\\\--------------------------------------|
A|--------------------------------------------------------------0----------------------|
E|---0--------4----------5---------------0--------4-----4------------------------------|


e|-4---------------------------------10----9---------------------------|
B|---5-------4--5-4------4--5//////9-----------5---7--8bbbbb--9--------|
G|-----4--5-----------6-----------------------------------------9------|
D|----------------------------------------------------------------9----|
A|---------------------------------------------------------------------|
E|-0------4---------------------------------------------------0--------|
Tap to rate this tab
# A B C D E F G H I J K L M N O P Q R S T U V W X Y Z