Song name
# A B C D E F G H I J K L M N O P Q R S T U V W X Y Z

Quasi - Ape Self Prevails In Me Still tab

Credit goes to this site.
http://roxichord.tripod.com/roxichord.html
I'm uploading them all, 
FOR GREAT JUSTICE.

APE SELF PREVAILS IN ME STILL
by Sam Coomes

Intro Riff:

I think this is it, its Drop D by the way:


e|--------------------------------------------------|
B|--------------------------------------------------|
G|---------------------------10/11--10/11--10/11-10-|
D|-0---0--3--0---12--11--10-------------------------|   x3
A|-0---0--3--0---12--11--10-------------------------|
D|-0---0--3--0---12--11--10-------------------------|


   then these chords played a bit
e|---------------|
B|------8--------|
G|-9-7--10--10---|
D|-5-5--8---8----|
A|-5-5--8---8----|
D|-5-5--8---8----|


Next Bit:
                            1st      2nd
                             & 3rd   & (4th)
e|-7---7-------------------|-------|------------|
B|---------7---7-----------|-------|------------|
G|-----------------9---7---|-11----|-10--(10\7)-|
D|-0-------4---4---5---5---|-0-----|-8----------|
A|-0-------4---4---5---5---|-0-----|-8----------|
E|-0-------4---4---5---5---|-0-----|-8----------|


Third Bit:

  play 4 times                  1st, 2nd & 3rd
e|----------12-b-14-r-12-10---|----------12-13-14-|
B|----------------------------|-------------------|
G|----------------------------|-------------------|
D|-5--5--5--------------------|-------------------|
A|-5--5--5--------------------|-------------------|
E|-5--5--5--------------------|--0--0--0----------|

4th time
e|----------------------------------|
B|----------------------------------|
G|----------------------------------|
D|-0---3-4-5-----6-7-8----10-11-12--|
A|-0---3-4-5-----6-7-8----10-11-12--|
E|-0---3-4-5-----6-7-8----10-11-12--|


      B5        E5    A5   D5         B5   E5     A5
The desiiiiiiiiire to disappear yet remain here
      D5     F#5    G5          A#5
It is clear, dear - ape self prevails in me still

Repeat Intro Riff

Finish with 
e|----------------------------------|
B|----------------------------------|
G|----------------------------------|
D|-0---3-4-5-----6-7-8----10-11-12--|
A|-0---3-4-5-----6-7-8----10-11-12--|
E|-0---3-4-5-----6-7-8----10-11-12--|



"Thats it."
Tap to rate this tab
# A B C D E F G H I J K L M N O P Q R S T U V W X Y Z