Song name
# A B C D E F G H I J K L M N O P Q R S T U V W X Y Z

Queen Adreena - Weeds tab

Queen Adreena - Weeds
Tabbed By: Myke
EMail: A_Violet_Fluid@hotmail.com

Standard Tuning

Verse:

|--11-----11-----11--7-----7-----7--|
|-----9------9---------7-----7------|
|-------9------9---------8-----8----|
|-----------------------------------|
|-----------------------------------|
|-----------------------------------|

|--4-----4-----4--7------7-----7--|
|----5-----5--------7------7------|
|------6-----6--------8------8----|
|---------------------------------|
|---------------------------------|
|---------------------------------|

Chorus:

|--4-----4-----4-----4-----4-----4-----4-----4-----11----11----11--|
|----5-----5-----4-----4-----5-----5-----4-----4------9-----9------|
|------6-----6-----4-----4-----6-----6-----4-----4------9-----9----|
|--4-----4-----4-----4-----4-----4-----4-----4---------------------|
|------------------------------------------------------------------|
|------------------------------------------------------------------|
Tap to rate this tab
# A B C D E F G H I J K L M N O P Q R S T U V W X Y Z