Song name
# A B C D E F G H I J K L M N O P Q R S T U V W X Y Z

Queen And Paul Rogers - Hammer To Fall tab

-------------------------------------------------------------------------------
			     Hammer to Fall (slow) - Queen + Paul Rogers
-------------------------------------------------------------------------------
Tabbed by: leftfret
Email: leftfret@hot,ail.com

Tuning:

e|--------------------0--------------------------0---------------------------|
B|-----------2/3--------3-------------------2/3-----3--------------2/3-------|
G|--------2----------------2-------------2-------------2--------2------------|
D|-----2----------------------2-------2------------------2----2--------------|
A|--0-----------------------------0-------------------------0----------------|
E|---------------------------------------------------------------------------|

| /  slide up
| \  slide down
| h  hammer-on
| p  pull-off
| ~  vibrato
| +  harmonic
| x  Mute note
===============================================================================
Tap to rate this tab
# A B C D E F G H I J K L M N O P Q R S T U V W X Y Z