Song name
# A B C D E F G H I J K L M N O P Q R S T U V W X Y Z

Queen - Fight From The Inside tab

-----------------------------------------------------------------------------
	       	     Fight from the Inside - Queen
-----------------------------------------------------------------------------
Tabbed By: powerade315

Tuning: Standard

The intro is a bit hard to tab out, but the main idea is just a lot of ryhthmic mute notes

e|--------------------------------------4--------------------------|
B|--------------------------------------4--------------------------|
G|--------------------------------------3b-------------------------|
D|--3--3------1-----------3--3------1h3------3--3------1-----------|
A|--------1h3---3-1-------------1h3----------------1h3---3-1-------|
E|-1--1-------------4~---1--1---------------1--1-------------4~----|
                                           Hey you boy
                        Riff B:
e|-----------------4------------------------------------------------------|
B|-----------------4------------------------------------------------------|
G|-----------------3b------8h10-10--10-8----8h10-10-10-x-10-8-------8h10--|
D|---3--3------1h3-----------------------10-------------------10-8--------|
A|---------1h3------------------------------------------------------------|
E|--1--1------------------------------------------------------------------|
    Hey you             Hey you boy, think that  you   know   what  your
                        Hey you boy, think that  you   know   what  your

e|-------------------------------------------------------------------------|
B|-------------------------------------------------------------------------|
G|-10-8-10-8------8--------------8h10-10--10-8----8h10-10-10-x-10-8--------|
D|-----------10-8---10-8-----------------------10-------------------10-8---|
A|-----------------------11~-8---------------------------------------------|
E|-------------------------------------------------------------------------|
    doing                      You think you're gonna          set things
    doing                      You think that out in the streets is all

e|---------------------------------------------------------------------------|
B|---------------------------------------------------------------------------|
G|-8h10------------------------------8h10-10--10-8----8h10-10-10-x-10-8------|
D|------10-8-10-8------8---------------------------10-------------------10-8-|
A|----------------10-8---10-8------------------------------------------------|
E|----------------------------11~-8------------------------------------------|
     to right                       You're just  another    picture on
     free                           You're just  another    money-spinning

e|---------------------------------------------------------------------------|
B|---------------------------------------------------------------------------|
G|-8h10------------------------------8h10-10--10-8----8h10-10-10-x-10-8------|
D|------10-8-10-8------8---------------------------10-------------------10-8-|
A|----------------10-8---10-8------------------------------------------------|
E|----------------------------11~-8------------------------------------------|
    a teenage wall
    tool                            You're just  another

e|---------------------------------------------------------------------------|
B|---------------------------------------------------------------------------|
G|-8h10------------------------------8h10-10--10-8----8h10-10-10-x-10-8------|
D|------10-8-10-8------8---------------------------10-------------------10-8-|
A|----------------10-8---10-8------------------------------------------------|
E|----------------------------11~-8------------------------------------------|
                                     You're just another sucker ready for a
   fool
                                  Riff C:
e|-----------------------------------------------------------------------|
B|-----------------------------------------------------------------------|
G|-8h10-----------------------------x---8-8-8-8/10----x-x---8-8/10-10----|
D|------10-8-10-8------8------------x---8-8-8-8/10----x-x---8-8/10-10----|
A|----------------10-8---10-8-------x---6-6-6-6/8-----x-x---6-6/8--8-----|
E|----------------------------11~-8--------------------------------------|
   fall                 /You gotta fight from the inside Attack from the rear
                        \

e|---------------------------------------------------------------------------|
B|---------------------------------------------------------------------------|
G|----x---8-8-8-8/10------x-x---8-8/10-10-------------x-x-8-8-8-8/10~--------|
D|----x---8-8-8-8/10------x-x---8-8/10-10-------------x-x-8-8-8-8/10~--------|
A|----x---6-6-6-6/8-------x-x---6-6/8--8--------------x-x-6-6-6-6/8~---------|
E|---------------------------------------------------------------------------|Fight from 
inside You can't win with your hands tiedFight from the inside
  Riff D:
e|-----------------------------------------------|
B|------------------------------------6----------|
G|------------------------------------6----------|
D|--6h8-8-8-x---6h8-8-8-x---6h8-8-6-8---------6--|
A|------------8-----------8-------------8-6-8----|
E|-----------------------------------------------|
   Ooooooooooooooooooooooooooooooooooooooooooooo

e|-----------------------------------------------|
B|------------------------------------6----------|
G|------------------------------------6----------|
D|--6h8-8-8-x---6h8-8-8-x---6h8-8-6-8---------6--|
A|------------8-----------8-------------8-6-8----|
E|-----------------------------------------------|
   Ooooooooooooooooooooooooooooooooooooooooooooo

e|--------------------------------------------------------------------------|
B|------------------------------------6-------------------------------------|
G|------------------------------------6-----------8-8-x-8/10--x-x-8-8-8/10~-|
D|--6h8-8-8-x---6h8-8-8-x---6h8-8-6-8---------6---8-8-x-8/10--x-x-8-8-8/10~-|
A|------------8-----------8-------------8-6-8-----6-6-x-6/8---x-x-6-6-6/8~--|
E|--------------------------------------------------------------------------|
   Ahhhhhhhhhhhhhhhhhhhhhhhhhhhhhhhh Fight from the insideRight down the line

(back to beginning of tab)

Coda:
e|----------------------------------------------|
B|----------------------------------------------|
G|-10-10-10-------------10-10-10------------10--|
D|-10-10-10-------------10-10-10------------10--|
A|-8--8--8--------------8--8--8-------------8---|
E|----------------------------------------------|
   Right down the line  Right down the line

| /  slide up
| \  slide down
| h  hammer-on
| p  pull-off
| ~  vibrato
| +  harmonic
| x  Mute note
============================================================================
Tap to rate this tab
# A B C D E F G H I J K L M N O P Q R S T U V W X Y Z