Guitaretab - guitar tabs
Song name
# A B C D E F G H I J K L M N O P Q R S T U V W X Y Z

Queen - I Want It All tab

This is the intro from "The Miracle" album
E |-------------------------3---------3-------------------------------| 
B |-------------------------3----3----3-------------------------------| 
G |-4----2----4-----2h4-4---0----2----0-----0h2-2---2----0----2-------|   
D |-4----2----4---2-2h4-4---0----0----0-----0h2-2---2----0----2-------| 
A |-2----0----2---0-0---2---x----x----x--0--0---0---0----0----0-------| 
E |-------------------------3----2----3-------------------------------|
                 Pm                     pm
E |---------------------------------3-3-------------------------------| 
B |---------------------------------3-3-------------------------------| 
G |---2h4-4---4-x-x-4-x-2----4-4----0-0----2-2----4-4p2---4-4----4-4--|   
D |-22h4-4---4-x-x-4-x-2----4-4----0-0----2-2----4-4p2---4-4----4-4--| 
A |-0-0---2---2-x-x-2-x-0----2-2----x-x----0-0----2-2(0)--2-2----2-2--| 
E |---------------------------------3-3-------------------------------|
   Pm
[ Tab from: http://www.guitaretab.com/q/queen/15286.html ]
Related for I Want It All tab