Song name
# A B C D E F G H I J K L M N O P Q R S T U V W X Y Z

Queen - Innuendo tab

PLEASE NOTE
This file is the author's own work and represents their interpretation of the
song. You may only use this file for private study, scholarship, or research.
 
Tabbed by Jura Bartonek (Jago syn Jungle) from Czech Republic. 5.2.2006. 
I think itīs 99.9% correct...but i dont have whole song...if you want please rate me
 Goood song...the best singer ..grat guitarist


  INTRO                             VERSE    While..          Yeess..
e[--------------------------------*------*---------------*------------------------------------------------------------------]
B[--------------------------------*------*---------------*------------------------------------------------------------------]
G[-6-8-/9-/11//------4-5-7--5-----*-1----*---------------*-6--------------------------------6-------------------------------]
D[---------------2-----------7--2-*-2-2--*-6-7-6-7-6-7-6-*-6------4-3-----------------------6---------------6/7-6-----------]
A[---------------2--------------2-*-2-2--*-6-7-6-7-6-7-6-*-4--0-1-2-1-4----4-6-7--9/11-/2---4---------------6/7-6-----------]
E[---------------0--------------0-*---0--*-4-5-4-5-4-5-4-*------------2------------------------4-6-7--6-2---4/5-4-----------] 

  1:36                                                 2:39
e[-----------------------------/7---*-----*---------*----------------------]
B[----------------------------------*-----*---------*----------------------]
G[----4-5-7--5------4-5-7-/7-4------*VERSE*-Yess...-*--Acustic part--------]
D[-2----------7--2------------------*-----*---------*----------------------]
A[-2-------------0------------------*-----*---------*----------------------]
E[-0-------------0------------------*-----*---------*----------------------] 

  Acustic solo   2x                2x  
e[--------9----------------------*-----------------------------------------------------------]
B[--10-12---10-------------12-10-*--9-10-12-9--10-12-13-10---9-10-12-10-9--10-12-13-12-------]
G[-------------9----7-9-10-------*-----------------------------------------------------------]
D[--------------11---------------*-----------------------------------------------------------]
A[-------------------------------*-----------------------------------------------------------]
E[-------------------------------*-----------------------------------------------------------] 
              tu tu tu  BARRE
e*--8-8-8--8--8--8--7--7-----8-8-8-------]
B*--8-8-8--9--9--9--9--9-----9-9-9-------]
G*--9-9-9--10-10-10-10-10----8-8-8-------]
D*---------------------------------------]
A*---------------------------------------]
E*-8------8------------------------------] ..sorry I donīt have more...
Tap to rate this tab
# A B C D E F G H I J K L M N O P Q R S T U V W X Y Z