Song name
# A B C D E F G H I J K L M N O P Q R S T U V W X Y Z

Queen - Long Away tab

Help us improve GuitareTab! Take a short survey!
                         LONG AWAY
                           QUEEN


E||--0--0------0--0------|--0--0-----0---------------|
B||--2--2------3--3------|--2--2-----0-------0h-2-0--|
G||--2--2------2--2------|--2--2-----1---------------|
D||--2--2------2--2------|--2--2-----2---------------|
A||--0--0------0--0------|--0--0-----2---------------|
E||----------------------|----------(0)--------------|


                    
--------------------0----||
-----------7----7---2----||
--2--2s----7----7---2----||
-----------7----7---2----||
--------------------0----||
-------------------------||
Related for Long Away tab