Song name
# A B C D E F G H I J K L M N O P Q R S T U V W X Y Z

Queen - Now Im Here tab

intro
e|-------------------------------------------------------------------------|
B|-------------------------------------------------------------------------|
G|-------------------------------------------------------------------------|
D|--7777777777777777777777775555555555555555555555555-5-55--7--repeat once-|
A|--5555555555555555555555553333333322222222111111111-1-33--5--------------|
E|-------------------------------------------------------------------------|
 

e|----0--0--0--0-----------------------------------------------------------|
B|----2--2--2--2-----------------------------------------------------------|
G|----2--2--2--2-----------------------------------------------------------|
D|----2--2--2--2--4--4--4--4-------------let each chord ring out-----------|
A|----0--0--0--0--2--2--2--2-----------------------------------------------|
E|-------------------------------------------------------------------------|
 
 main riff             b5 a5        d d  a   b5 b5 f#5
e|-----------------------------------2-2--0--------------------------0----0|
B|-----------------------------------3-3--2--------------------------0----0|
G|-----------------------------------2-2--2------------------0-2-----1----1|
D|-------------2--------4--2---------0-0--2--4--4--------------------2----2|
A|----------------------2--0--------------0--2--2--4--0-1-2----------2----2|
E|----0--3--4-----0-----------3--4--0---------------2-------------0--0--0-0|

e|-----2--0--------------------------------------------------------------|
B|-----3--2--------------------------------------------------------------|
G|-----2--2--------------------------------------------------------------|
D|-----0--2--------------------------------------------------------------|
A|--------0--------------------------------------------------------------|
E|--0--------------------------------------------------------------------|

Tap to rate this tab
# A B C D E F G H I J K L M N O P Q R S T U V W X Y Z