Song name
# A B C D E F G H I J K L M N O P Q R S T U V W X Y Z

Queen - One Vision tab

Help us improve GuitareTab! Take a short survey!
-------------------------------------------------------------------------------
			     ONE VISION - QUEEN -WE WILL ROCK YOU LONDON

Tabbed by:.JACK 
Email:s4j1@hotmail.com                GUITAR 1- HEAVY DISTORTION WITH FADE EFFECT
                                      GUITAR 2- CLEAN WITH SLIGHT ECHO
Tuning:STANDARD

GUITAR 1
e|---------------|
B|---------------|
G|---------------|
D|-0~------0~----| X 4
A|---------------|
E|---------------|


GUITAR 2 (AFTER ONE OF THE ABOVE)
e|-2-2-2-2-2-3-3-3-3-3-5-5-5-5-5-3-3-3-0-0--6-6-6-6-6-8-8-8-8-8-10~----------|
B|---------------------------------------------------------------------------| 
G|---------------------------------------------------------------------------| X 1
D|---------------------------------------------------------------------------|
A|---------------------------------------------------------------------------|
E|---------------------------------------------------------------------------|



GUITAR 1 (ALL THE WAY THROUGH)
e|-----------------------------------|
B|-----------------------------------|
G|---7\-6-7-7-4-5-5-4-5-5-4-5-5-6-7\-|
D|---7\-6-7-7-4-5-5-4-5-5-4-5-5-6-7\-| X 2 (BACK IN AFTER SOLO)X4
A|---5\-4-5-5-2-3-3-2-3-3-2-3-3-4-5\-|
E|-----------------------------------|




GUITAR 2 (AFTER GUITAR 1 PLAYS THIS ONCE)(ALL THE WAY THROUGH AGAIN)
e|-------------------------------|
B|-------------------------------|
G|--7---7-7---5-5---5-5-----7-7--|
D|--7-7-7-7-5-5-5-5-5-5-7-7-7-7--|X5
A|--5-7-5-5-5-3-3-5-3-3-7-7-5-5--|
E|----5-----3-----3-----5-5------|

GUITAR 1
e|----------------------------------------------------------------------------|
B|-12b13-t13p11t13p10t13p9t13p8-----------------------------------------------|
G|-----------------------------t12p11t12p10t12p8------------------------------|
D|----------------------------------------------t12p10t12p8-------------------|X 1
A|---------------------------------------------------------t12p10t12p8t10p6---|
E|-------------------------------------------------------------------------8\-|

(CARRY ON VERSE)

GUITAR 2
e|---------------|
B|---------------|
G|---------5-5-5-|X 1 --THEN DROP OUT
D|---5-3---5-5-5-|
A|---5-3---3-3-3-|
E|---3-1---------|

GUITAR 1
e|---------------------------------------------------------------------------|
B|---------------------------------------------------------------------------|
G|---------------------------------------------------------------------------|
D|---------------------------------------------------------------------------|
A|--------5---------5---3-3-3-3-3-3---0-1-2-3-4------------------------------|
E|---5---------5-------------------------------------------------------------|
X 1 THEN BACK TO BEGINING AND REPEAT ONCE

END

| /  slide up
| \  slide down
| h  hammer-on
| p  pull-off
| ~  vibrato
| +  harmonic
| x  Mute note
===============================================================================
Related for One Vision tab