Guitaretab - guitar tabs
Song name
# A B C D E F G H I J K L M N O P Q R S T U V W X Y Z

Queen - Somebody To Love tab

#

Queen: Somebody to love
guitar solo
-------------------------------------------------------------------------------
-----------------------------------------------16------------------------------
15b17----15b17__rp13h15p13----------13--15b17-----b17__rp13--15--------10/13-13
--------------------------15----13-------------------------------13------------
-------------------------------------------------------------------------------
-------------------------------------------------------------------------------

-------------------------------------------------------------------------------
-------13---------13---------13------------------------------------------------
15b17------15b17------15b17------17r15p13------15b17__rp1315__b17--------------
-----------------------------------------15-----------------------15b_16-15p13v
-------------------------------------------------------------------------------
-------------------------------------------------------------------------------

|-------------------------------------------------------------15-16-18v\--|
|-16b18----16--14--13-14-b16v__r14p13-15-16-b18__r16p14-16-18-------------|
|-------------------------------------------------------------------------|
|-------------------------------------------------------------------------|
|-------------------------------------------------------------------------|
|-------------------------------------------------------------------------|

|------------------------------------------------------------------------|
|--------------------------11-10-9-8-------------------------------------|
|----8--10-12_r10p8-10--8------------10b11rp8--8----------10p8h10p8------|
|-8------------------------------------------10----8h10h11---------6h8p6-|
|------------------------------------------------------------------------|
|------------------------------------------------------------------------|
Transcribed by Pinter Denes
[ Tab from: http://www.guitaretab.com/q/queen/15331.html ]
Related for Somebody To Love tab