Song name
# A B C D E F G H I J K L M N O P Q R S T U V W X Y Z

Queen - We Will Rock You tab

-------------------------------------------------------------------------------
			     WE WILL ROCK YOU - Queen
-------------------------------------------------------------------------------

Album: John Peel Sessions (BBC Radio 1)

Tabbed by: Isaias Garcia (TexasFury)

Tuning: Standard

Tempo - 157 bpm


Guitar - left

     W                   W                   W                   W                 
E||-------------------|-------------------|-------------------|-------------------|
B||-------------------|-------------------|-------------------|-------------------|
G||-------------------|-------------------|-------------------|-------------------|
D||-------------------|-------------------|-------------------|-------------------|
A||-------------------|-------------------|-------------------|-------------------|
E||-------------------|-------------------|-------------------|-------------------|


  H        Q    E  E     Q     Q     E   E  E  E     Q     E   E  Q    E  E   
----------------------|---------------------------|--------------------------|
----------------------|-------10----10p--9--9--9--|--L-----------------------|
----------------------|--------9-----9------9--9--|--L------------9----------|
----------------------|--------9-----9------9--9--|--L----11p--9--9----------|
----------------------|--------------7------7--7--|--L-----7------7----------|
-------------------0--|--L------------------------|-----------------------0--|


  Q     Q     E   E  E  E     Q     E   E  E  E  E  E     E  E   E   E  Q     E   E   
---------------------------|---------------------------|-----------------------------|
-------10----10p--9--------|---------------------------|-----------------------------|
--------9-----9---L-----9--|--L------------9-----------|-----------------------------|
--------9-----9---L-----9--|--L----11p--9--9-----------|--9--9--11p--9--9----11p--9--|
--------7-----7---L-----7--|--L-----7------7-----------|--7--7---7---7--7-----7---7--|
--L-----------0---L--0-----|------------------0--0--0--|--0--0---0---0--0-----0---0--|


  E  E   E   E  Q     E   E     E  E   E   E  Q     E   E     E  E   E  E  Q     E    E   
-----------------------------|-----------------------------|-----------------------------|
-----------------------------|-----------------------------|--------10-----9-------------|
-----------------------------|----------------9------------|---------9-----9---------12--|
--9--9--11p--9--9----11p--9--|--9--9--11p--9--9----11p--9--|--9--9---9--9--9----11h--12--|
--7--7---7---7--7-----7---7--|--7--7---7---7--7-----7---7--|--7--7---7--7--7-----7---10--|
--0--0---0---0--0-----0---0--|--0--0---0---0--0-----0---0--|--0--0---0--0--0-----0-------|


   E   E   E  E  Q     E  E     E  E  Q    E  E  E  E     E  E   E  E   Q    E  E   
-----------------------------|-------------------------|---------------------------|
-----------------------------|-------------------------|--------10-----10----------|
--12--12--12--7--7\-------5--|--5--5--5----------------|---------9--9---9----------|
--12--12--12--7--7\-------5--|--5--5--5----------------|---------9--9---9----------|
--10--10--10--5--5\-------3--|--3--3--3----------------|---------7--7---7----------|
-----------------------------|-------------3--2--1--0--|--0--0---0--0---0----0--0--|


  E  E   E  E  Q    E   E      E   E   E  E  Q    E  E     E  E  Q    E  E  E  E   
---------------------------|----------------------------|-------------------------|
--------10-----9-----------|----------------------------|-------------------------|
---------9--9--9----x--12--|--12--12--12--7--7----x--5--|--5--5--5----------------|
--9--9---9--9--9----x--12--|--12--12--12--7--7----x--5--|--5--5--5----------------|
--7--7---7--7--7----x--10--|--10--10--10--5--5----x--3--|--3--3--3----------------|
--0--0---0--0--0-----------|----------------------------|-------------3--2--1--0--|


  E  E   E   E  Q     E   E     E  E   E   E  E  E  E  E     E  E   E   E  E  E  Q     
-----------------------------|----------------------------|---------------------------|
-----------------------------|----------------------------|---------------------------|
-----------------------------|----------------------------|---------------------------|
--9--9--11p--9--9----11p--9--|--9--9--11p--9--9--9--9--9--|--9--9--11p--9--9--9--9----|
--7--7---7---7--7-----7---7--|--7--7---7---7--7--7--7--7--|--7--7---7---7--7--7--7----|
--0--0---0---0--0-----0---0--|--0--0---0---0--0--0--0--0--|--0--0---0---0--0--0--0----|


  E  E  Q    E  E  E  E     Q    Q    Q    Q       Q     E   E  E  E  Q       W                 
-------------------------|----------------------|--------------------------|-------------------|
-------------------------|----------------------|--------------------------|-------------------|
--5--5--5----------------|----------------------|--------------------------|--7----------------|
--5--5--5----------------|----------------------|--9----11p--9--9--9--L----|--7----------------|
--3--3--3----------------|-------2----2---------|--7-----7---7--7--7--L----|--5----------------|
-------------3--2--1--0--|--0----0----0---------|--0-----0---0--0--0--L----|-------------------|


  E  E  E  E  H            E   E   E  E  Q    E  E     E  E  Q    E  E  E  E   
-----------------------|----------------------------|-------------------------|
-----------------------|----------------------------|-------------------------|
-----------------------|--12--12--12--7--7----x--5--|--5--5--5----------------|
-----------------------|--12--12--12--7--7----x--5--|--5--5--5----------------|
-----------------------|--10--10--10--5--5----x--3--|--3--3--3----------------|
--5--3--0--0--0--------|----------------------------|-------------3--2--1--0--|


  Q     E   E  E  E  E  E     E  E   E   E  E  E  Q         E   E   Q    E  E  Q     
---------------------------|----------------------------|---------------------------|
---------------------------|----------------------------|---------------------------|
---------------------------|----------------------------|--12--12--12----7--7--7----|
--9----11p--9--9--9--9--9--|--L--9--11p--9--9--9--9\----|--12--12--12----7--7--7----|
--7-----7---7--7--7--7--7--|--L--7---7---7--7--7--7\----|--10--10--10----5--5--5----|
--0-----0---0--0--0--0--0--|--L--0---0---0--0--0--0\----|---------------------------|


                            PM PM              PM                          PM     
  E  E  Q    E  E  E  E     E  E   E   E  Q    E  E     E  E   E   E  Q    E  E   
-------------------------|---------------------------|---------------------------|
-------------------------|---------------------------|---------------------------|
--5--5--5----------------|---------------------------|---------------------------|
--5--5--5----------------|--------11p--9--9-------9--|--------11p--9--9-------9--|
--3--3--3----------------|---------7---7--7-------7--|---------7---7--7-------7--|
-------------3--2--1--0--|--0--0---0---0--0----0-----|--0--0---0---0--0----0--0--|


                                                       PM    PM PM      PM     
  E  E   E   E  E  E  E  E     H        E  E  E  E     E  E  E  E  Q    E  E   
----------------------------|-----------------------|-------------------------|
----------------------------|-----------------------|-------------------------|
----------------------------|-----------------------|-------------------------|
--9--9--11p--9--9--9--9--9--|--5--------------------|-----9--------9----------|
--7--7---7---7--7--7--7--7--|--3--------------------|-----7--------7----------|
----------------------------|-----------3--2--1--0--|--0-----0--0-------0--0--|


                    PM                                                 
  E  E   E  E  Q    E  E     H.           Q       E  E  Q    H         
--------------------------|--------------------|----------------------|
--------------------------|--7-----------------|----------------------|
--------------------------|--7------------5----|----------------------|
--------11-----9----------|--7------------5----|-------------9--------|
---------7-----7----------|--5------------5----|-------------7--------|
--L--0------0-------0--0--|--------------------|--5--3--0-------------|


                                                                  PM   PM                   
   E   E   E   E   Q     Q        E  E  Q    E  E  E  E     E  E  Q    E   E    E     E     
-------------------------------|-------------------------|---------------------------------|
--12--12--12--12--12-----------|-------------------------|----------------12----L----12----|
--12--12--12--12--12-----------|--5--5--5----------------|----------------11b---Lpb--11pb--|
--12--12--12--12--12----12\----|--5--5--5----------------|--------7----7-------------------|
--10--10--10--10--10----10\----|--3--3--3----------------|--------7----7-------------------|
-------------------------------|-------------3--2--1--0--|--0--0---------------------------|


   S    S E   E  E  Q     Q        E   E   E   E   Q     Q        E  E  Q    E  E  E  E   
-------------------------------|-------------------------------|-------------------------|
--12----L----------------------|--12--12--12--12--12-----------|-------------------------|
--11br-11-9------9--L----------|--12--12--12--12--12-----------|--5--5--5----------------|
-------------11--9--L----------|--12--12--12--12--12----12\----|--5--5--5----------------|
-------------------------------|--10--10--10--10--10----10\----|--3--3--3----------------|
-------------------------10----|-------------------------------|-------------3--2--1--0--|


  Q    Q    H           H        E  E  E  E     W                   W                 
---------------------|-----------------------|-------------------|-------------------|
---------------------|-----------------------|-------------------|-------------------|
--5------------------|--------------5--5--5--|-------------------|-------------------|
--5------------------|--------------5--5--5--|-------------------|-------------------|
--3------------------|--------------3--3--3--|-------------------|-------------------|
---------------------|-----------------------|-------------------|-------------------|


  E   E    Q       Q      E      E        E   E    Q       Q      Q      
--------------------------------------|---------------------------------|
-----12----L------12-----12------L----|---L--12----L------12-----12-----|
-----11b---Lpb----11b----11pbr---Lpb--|---L--11b---Lpb----11b----11b----|
--------------------------------------|---------------------------------|
--------------------------------------|---------------------------------|
--------------------------------------|---------------------------------|


                          PM                                   PM     
  E   E    Q       Q      E   E       Q        E     E   Q     E  E   
----------------------------------|----------------------------------|
-----12----L------12--------------|----------------------------------|
-----11b---Lpb----11b--------15b--|---Lpb~-----Lpb--12---L~----------|
-----10b---Lpb----10b~------------|----------------------------x-----|
--------------------------0-------|----------------------------x-----|
----------------------------------|-------------------------------0--|


  E   E    E     E     S     S E   E  E     E   E   E   E    S     S E   E  E   
-----------------------------------------|-------------------------------------|
-----12---12----12----12-----L-----------|-----12------12---12-----L-----------|
-----11b--11pb--11pb--11pbr-11-9------9--|-----11b-----11b--11pbr--L-9------9--|
----------------------------------11--9--|------------------------------11--9--|
-----------------------------------------|-------------------------------------|
-----------------------------------------|-------------------------------------|


  E   E    E     E    S     S  E  E   E       E   E   E   E   H           
------------------------------------------|------------------------------|
-----12---12----12---12----12-12-----12b--|---L--12--10------------------|
-----11b--11pb--11b--11pbr--L-11--9-------|------------------------------|
------------------------------------------|--------------12---L\~--------|
------------------------------------------|------------------------------|
------------------------------------------|------------------------------|


           ^                                                          PM PM             
  E  E  E  E  E  E  E  E     E  E  E  E  E  E   E  E     E  E   E  E  E  E   E    E     
--------------------------|---------------------------|--------------------------------|
--------------------------|-----------9--L-----10-----|--9-----10-----------12---12----|
-----------------------7--|-----7-----9--L------9-----|--9------9-----------11b--11pb--|
-----------------------7--|-----7-----9--L------9-----|--9------9----------------------|
--------------------------|---------------------------|--------------------------------|
--0--0--0--0--0--0--0-----|--0-----0--------0------0--|--0--0---0--0--0--0-------------|


   E    E     E     E     E     E     E     E        E    E     E     E    E     E     E    E     
-------------------------------------------------|-----------------------------------------------|
--12---12----12----12----12----12----12----12----|--12---12----12----12---12----12----12---12----|
--11b--11pb--11pb--11pb--11pb--11pb--11pb--11pb--|--11b--11pb--11pb--11b--11pb--11pb--11b--11pb--|
-------------------------------------------------|-----------------------------------------------|
-------------------------------------------------|-----------------------------------------------|
-------------------------------------------------|-----------------------------------------------|


                                                                               PM  
   E     E    E     E     E    E   E     E      E    E   E   E    E   E     E  E   
--------------------------------------------|-------------------------------------|
--12----12---12----12----12---12--12----12--|--12---12--12--12----L--12~----L-----|
--11pb--11b--11pb--11pb--11b--11--11pb--11--|--11b----------11b---L--11b~---L-----|
--------------------------------------------|----------------------------------0--|
--------------------------------------------|-------------------------------------|
--------------------------------------------|-------------------------------------|


  E   E    Q       E   E    E  E     E  E  E  E  Q     Q        E  E  Q    E  E  E  E   
----------------------------------|--------------------------|-------------------------|
-----15b---Lb~-----L--------------|--------------------------|-------------------------|
----------------------14~---L-----|-----7--L--7--7-----------|--5--5--5----------------|
----------------------------------|-----5--L--7--7----12\----|--5--5--5----------------|
----------------------------------|--5--5--L--5--5----10\----|--3--3--3----------------|
----------------------------------|--------------------------|-------------3--2--1--0--|


                   PM PM                                                                   
  E  E   E   E  E  E  E  E     E  E   E   E  E  E   E   E      E   E   E   E  Q     Q      
----------------------------|------------------------------|------------------------------|
----------------------------|------------------------------|--12--12--12--12--7-----------|
----------------------------|------------------------------|--12--12--12--12--7-----------|
--9--9--11p--9--9--------9--|--L--9--11p--9--9--9--11p--9--|--12--12--12--12--7----12\----|
--7--7---7---7--7--------7--|--L--7---7---7--7--7---7---7--|--10--10--10--10--5----10\----|
--0--0---0---0--0--0--0--0--|--0--0---0---0--0--0---0---0--|------------------------------|


  E  E  Q    E  E  E  E     E  E   E   E  E  E   E  E     E  E   E   E  E  E  E  E   
-------------------------|-----------------------------|----------------------------|
-------------------------|-----------------------------|----------------------------|
--5--5--5----------------|-----------------------------|----------------------------|
--5--5--5----------------|--9--9--11p--9--9--9--11--9--|--L--9--11p--9--9--9--------|
--3--3--3----------------|--7--7---7---7--7--7---7--7--|--L--7---7---7--7--7--------|
-------------3--2--1--0--|--0--0---0---0--0--0---0--0--|--L--0---0---0--0--0--0--0--|


  E  E   E   E  E  E   E  E     E  E  Q    E  E  E  E     E  E   E   E  E  E  E  E   
-----------------------------|-------------------------|----------------------------|
-----------------------------|-------------------------|----------------------------|
-----------------------------|--------5----------------|----------------------------|
--9--9--11p--9--9--9--11--9--|--4--4--5----5--5--5-----|--9--9--11p--9-----------9--|
--7--7---7---7--7--7---7--7--|--3--3--3----5--5--5-----|--7--7---7---7-----------7--|
--0--0---0---0--0--0---0--0--|-------------3--3--3--0--|--0--0---0---0--0--0--0--0--|


  E  E   E   E  E  E   E  E     H.            Q        E  E  Q    H         
-----------------------------|----------------------|----------------------|
-----------------------------|--7-------------------|----------------------|
-----------------------------|--7-------------------|----------------------|
--9--9--11p--9--9--9--11--9--|--7-------------------|----------------------|
--7--7---7---7--7--7---7--7--|--5-------------------|-------------2--------|
--0--0---0---0--0--0---0--0--|---------------12\----|--5--3--0----0--------|


   E   E   E   E  Q     Q        E  E  Q    E  E  Q     
------------------------------|------------------------|
--12--12--12--12--7-----------|------------------------|
--12--12--12--12--7-----------|--5--5--5---------------|
--12--12--12--12--7----12\----|--5--5--5----5--5--5----|
--10--10--10--10--5----10\----|--3--3--3----5--5--5----|
------------------------------|-------------3--3--3----|


  E   E    E     E     E     E     E     E        E    E    E    E    Q     Q     
----------------------------------------------|----------------------------------|
----------20----20----20----20----20----20----|--20---20---20---20----L\---------|
-----19b---Lpb--19pb--19pb--19pb--19pb--19pb--|--19b--19b--19b--19b---L\---------|
----------------------------------------------|----------------------------------|
----------------------------------------------|----------------------------------|
----------------------------------------------|----------------------------------|


  E  E  Q    Q     Q        E  E  Q    E  E  E  E     E  E   E   E  E  E  E  E   
-------------------------|-------------------------|----------------------------|
-------------------------|-------------------------|----------------------------|
-----7--7----7-----------|--5--5--5----------------|----------------------------|
-----5--5----7----12\----|--5--5--5----------------|--9--9--11p--9--9--9-----9--|
--5--5--5----5----10\----|--3--3--3----------------|--7--7---7---7--7--7-----7--|
-------------------------|-------------3--2--1--0--|--0--0---0---0--0--0--0--0--|


  E  E   E   E  E  E   E   E      E   E   E   E  Q     Q        E  E  Q    E  E  Q     
------------------------------|------------------------------|------------------------|
------------------------------|--12--12--12--12--7-----------|------------------------|
------------------------------|--12--12--12--12--7-----------|--5--5--5---------------|
--L--9--11p--9--9--9--11p--9--|--12--12--12--12--7----12\----|--5--5--5----5--5--5----|
--L--7---7---7--7--7---7---7--|--10--10--10--10--5----10\----|--3--3--3----5--5--5----|
--0--0---0---0--0--0---0---0--|------------------------------|-------------3--3--3----|


  H.           E  E      W                   H        Q       H        Q    E  S S  
----------------------|-------------------|----------------|-----------------------|
----------------------|-------------------|----------------|-----------------------|
----------------------|-------------------|----------------|-----------------------|
--2------------L--2/--|-------------------|----------------|-------------------5-5-|
--0------------L--0/--|-------------------|----------------|-------------------3-3-|
----------------------|-------------------|----------------|-----------------------|


                                          \1/                                       
  W                   W                   W                   E.  S E.  S H         
-------------------|-------------------|-------------------|-----------------------|
-------------------|-------------------|-------------------|--7---7-7---9----------|
-------------------|-------------------|-------------------|--7---7-7---9----------|
--5----------------|--L----------------|-------------------|--7---7-7---9----------|
--3----------------|--L----------------|-------------------|-----------------------|
-------------------|-------------------|--0----------------|--------------0--------|

   
  W                                          
-------------------------------------------||
-------------------------------------------||
-------------------------------------------||
-------------------------------------------||
-------------------------------------------||
-------------------------------------------||




Guitar - right

     H        Q    E  E     Q     E   E  Q     E   E     E  E   E   E  E  E   E   E   
E||----------------------|----------------------------|------------------------------|
B||----------------------|----------------------------|------------------------------|
G||----------------------|----------------------------|------------------------------|
D||----------------------|-------11p--9--9----11p--9--|--9--9--11p--9--9--9--11p--9--|
A||-------------------7--|--L-----7---7--7-----7---7--|--7--7---7---7--7--7---7---7--|
E||-------------------0--|--L-----0---0--0-----0---0--|--0--0---0---0--0--0---0---0--|


  E  E   E   E  E  E   E   E     E  E   E   E  E  E   E  E     E  E   E   E  E  E   E   E   
------------------------------|-----------------------------|------------------------------|
------------------------------|-----------------------------|------------------------------|
------------------------------|-----------------------------|------------------------------|
--9--9--11p--9--9--9--11p--9--|--9--9--11p--9--9--9--11-----|--9--9--11p--9--9--9--11p--9--|
--7--7---7---7--7--7---7---7--|--7--7---7---7--7--7---7-----|--7--7---7---7--7--7---7---7--|
--0--0---0---0--0--0---0---0--|--0--0---0---0--0--0---0--0--|--L--0---0---0--0--0---0---0--|


  E  E   E   E  E  E   E   E     E  E   E   E  E  E   E   E     E  E   E   E  E  E   E   E   
------------------------------|------------------------------|------------------------------|
------------------------------|------------------------------|------------------------------|
------------------------------|------------------------------|------------------------------|
--9--9--11p--9--9--9--11p--9--|--9--9--11p--9--9--9--11p--9--|--9--9--11p--9--9--9--11p--9--|
--7--7---7---7--7--7---7---7--|--7--7---7---7--7--7---7---7--|--7--7---7---7--7--7---7---7--|
--0--0---0---0--0--0---0---0--|--0--0---0---0--0--0---0---0--|--0--0---0---0--0--0---0---0--|


  E  E   E   E  Q     E   E     E  E   E   E  Q     E   E     E  E   E   E  Q     E   E   
-----------------------------|-----------------------------|-----------------------------|
-----------------------------|-----------------------------|-----------------------------|
-----------------------------|-----------------------------|----------------9------------|
--9--9--11p--9--9----11p--9--|--9--9--11p--9--9----11p--9--|--9--9--11p--9--9----11p--9--|
--7--7---7---7--7-----7---7--|--7--7---7---7--7-----7---7--|--7--7---7---7--7-----7---7--|
--0--0---0---0--0-----0---0--|--0--0---0---0--0-----0---0--|--0--0---0---0--0-----0---0--|


  E  E   E  E  Q     E    E      E   E   E  E  Q    E  E     E  E  Q    E  E  E  E   
-----------------------------|----------------------------|-------------------------|
--------10-----9-------------|----------------------------|-------------------------|
---------9-----9---------12--|--12--12--12--7--7----x--5--|--5--5--5----------------|
--9--9---9--9--9----11h--12--|--12--12--12--7--7----x--5--|--5--5--5----------------|
--7--7---7--7--7-----7---10--|--10--10--10--5--5----x--3--|--3--3--3----------------|
--0--0---0--0--0-----0-------|----------------------------|-------------3--2--1--0--|


  E  E   E   E  Q     E   E     E  E   E   E  Q    E   E      E   E   E  E  Q    E  E   
-----------------------------|----------------------------|----------------------------|
-----------------------------|----------------------------|----------------------------|
-----------------------------|---------------------x--12--|--12--12--12--7--7----x--5--|
-----9--11p--9--9----11p--9--|--9--9--11p--9--9----x--12--|--12--12--12--7--7----x--5--|
-----7---7---7--7-----7---7--|--7--7---7---7--7----x--10--|--10--10--10--5--5----x--3--|
--L--0---0---0--0-----0---0--|--0--0---0---0--0-----------|----------------------------|


  E  E  Q    E  E  E  E     E  E   E   E  Q     E   E     E  E   E   E  E  E  E  E   
-------------------------|-----------------------------|----------------------------|
-------------------------|-----------------------------|----------------------------|
--5--5--5----------------|-----------------------------|----------------------------|
--5--5--5----------------|--9--9--11p--9--9----11p--9--|--9--9--11p--9--9--9--9--9--|
--3--3--3----------------|--7--7---7---7--7-----7---7--|--7--7---7---7--7--7--7--7--|
-------------3--2--1--0--|--0--0---0---0--0-----0---0--|--0--0---0---0--0--0--0--0--|


  E  E   E   E  E  E  Q       E  E  Q    E  E  E  E     E   E   E  E  E   E  E  E   
---------------------------|-------------------------|-----------------------------|
---------------------------|-------------------------|-----10---L-----9--10--------|
---------------------------|--5--5--5----------------|------9---L--9--9---9--------|
--9--9--11p--9--9--9--9----|--5--5--5----------------|------9---L--9--9---9--------|
--7--7---7---7--7--7--7----|--3--3--3----------------|------7---L--7--7---7--------|
--0--0---0---0--0--0--0----|-------------3--2--1--0--|--0---0---L--0--0---0--0--0--|


  E  E   E  E  H           W                   E  E  E  E  H            E   E   E  E  Q    E  E   
------------------------|-------------------|-----------------------|----------------------------|
--------10-----9--------|-------------------|-----------------------|----------------------------|
---------9--9--9--------|--7----------------|-----------------------|--12--12--12--7--7----x--5--|
--9--9---9--9--9--------|--7----------------|--------------9--------|--12--12--12--7--7----x--5--|
--7--7---7--7--7--------|--5----------------|--------------7--------|--10--10--10--5--5----x--3--|
--0--0---0--0--0--------|-------------------|--5--3--0--0--0--------|----------------------------|


  E  E  Q    E  E  E  E     Q    E  E  E  E  E  E     E  E   E  E  E  E  E  E   
-------------------------|-------------------------|---------------------------|
-------------------------|-------------------------|--------10-----------------|
--5--5--5----------------|-------------------------|---------9-----------------|
--5--5--5----------------|-------------------------|---------9-----------------|
--3--3--3----------------|-------------------------|---------------------------|
-------------3--2--1--0--|--0----0--0--0--0--0--0--|--L--0---0--0--0--0--0--0--|


   E   E   Q    E  E  Q       E  E  Q    E  E  E  E     Q     E   E  Q    E  E   
---------------------------|-------------------------|--------------------------|
---------------------------|-------------------------|--------------------------|
--12--12--12----7--7--7----|--5--5--5----------------|--------------------------|
--12--12--12----7--7--7----|--5--5--5----------------|--9----11p--9--9-------9--|
--10--10--10----5--5--5----|--3--3--3----------------|--7-----7---7--7-------7--|
---------------------------|-------------3--2--1--0--|--------0---0--0----0-----|


  Q     E   E  E  E  E  E     Q     E  E  H           E  E  Q    H          
---------------------------|-----------------------|-----------------------|
---------------------------|-------10-----9--------|-----------------------|
---------------------------|--------9--9--9--------|-----------------------|
--L----11p--9--9--9--9--9--|--9-----9--9--9--------|--5--5--5--------------|
--L-----7---7--7--7--7--7--|--7-----7--7--7--------|--3--3--3--------------|
--------0---0--0--0--0--0--|--0-----0--0--0--------|-------------3~--------|


  E  E  E  E  E  E  Q       E  E   E   E  E  E  Q       H        E  E  Q     
-------------------------|---------------------------|----------------------|
-------------------------|---------------------------|----------------------|
-------------------------|----------------------7----|--7--------L--5--5----|
--9--9--L--9--9--9--L----|--9--9--11p--9--9--9--7----|--7--------L--5--5----|
--7--7--L--7--7--7--L----|--7--7---7---7--7--7--5----|--5--------L--5--5----|
-------------------------|----------------------5----|--5--------L----------|


  E  E  E  E  H            E   E   E   E   Q     Q        E  E  Q    E  E  E  E   
-----------------------|-------------------------------|-------------------------|
-----------------------|--12--12--12--12--12-----------|-------------------------|
-----------------------|--12--12--12--12--12-----------|--5--5--5----------------|
--------------9--------|--12--12--12--12--12----12\----|--5--5--5----------------|
--4--2--------7--------|--10--10--10--10--10----10\----|--3--3--3----------------|
--5--3--0--0-----------|-------------------------------|-------------3--2--1--0--|


  Q     E   E  Q    E  E     E  E   E   E  E  E  Q         E   E   E   E   Q     Q      
--------------------------|----------------------------|-------------------------------|
--------------------------|----------------------------|--12--12--12--12--12-----------|
---------------9----------|----------------------------|--12--12--12--12--12-----------|
--9----11p--9--9-------9--|--L--9--11p--9--9--9--9\----|--12--12--12--12--12----12\----|
--7-----7---7--7-------7--|--L--7---7---7--7--7--7\----|--10--10--10--10--10----10\----|
--0-----0---0--0----0--0--|--L--0---0---0--0--0--0\----|-------------------------------|


  E  E  Q    E  E  E  E     Q    Q    H           H        E  E  E  E     W                 
-------------------------|---------------------|-----------------------|-------------------|
-------------------------|---------------------|-----------------------|-------------------|
--5--5--5----------------|--5------------------|--------------5--5--5--|-------------------|
--5--5--5----------------|--5------------------|--------------5--5--5--|-------------------|
--3--3--3----------------|--3------------------|--------------3--3--3--|-------------------|
-------------3--2--1--0--|---------------------|-----------------------|-------------------|


  W                   E  E   E   E  E  E   E   E     E  E   E   E  E  E   E   E   
-------------------|------------------------------|------------------------------|
-------------------|------------------------------|------------------------------|
-------------------|------------------------------|------------------------------|
-------------------|--9--9--11p--9--9--9--11p--9--|--9--9--11p--9--9--9--11p--9--|
-------------------|--7--7---7---7--7--7---7---7--|--7--7---7---7--7--7---7---7--|
-------------------|--0--0---0---0--0--0---0---0--|--0--0---0---0--0--0---0---0--|


  E  E   E  E   Q    E  E     E  E  Q    E  E  E  E     E  E   E  E  E  E   E   E   
---------------------------|-------------------------|-----------------------------|
--------10-----10----------|-------------------------|--------10-----9-------------|
---------9--9---9----------|--5--5--5----------------|---------9-----9-------------|
---------9--9---9----------|--5--5--5----5--5--5-----|--9--9---9--9--9--9--11p--9--|
---------7--7---7----------|--3--3--3----5--5--5-----|--7--7---7--7--7--7---7---7--|
--0--0---0--0---0----0--0--|-------------3--3--3--0--|--0--0---0--0--0--0---0---0--|


  E  E   E   E  E  E   E   E     E  E   E   E  E  E   E   E     E  E  Q    E  E  E  E   
------------------------------|------------------------------|-------------------------|
------------------------------|------------------------------|-------------------------|
------------------------------|------------------------------|--5--5--5----------------|
--9--9--11p--9--9--9--11p--9--|--9--9--11p--9--9--9--11p--9--|--5--5--5----------------|
--7--7---7---7--7--7---7---7--|--7--7---7---7--7--7---7---7--|--3--3--3----5--4--3-----|
--0--0---0---0--0--0---0---0--|--0--0---0---0--0--0---0---0--|-------------3--2--1--0--|


  E  E   E   E  E  E   E   E     E  E   E   E  E  E   E   E     E  E   E   E  E  E  E  E   
------------------------------|------------------------------|----------------------------|
------------------------------|------------------------------|----------------------------|
------------------------------|------------------------------|----------------------------|
--9--9--11p--9--9--9--11p--9--|--9--9--11p--9--9--9--11p--9--|--9--9--11p--9--9--9--9--9--|
--7--7---7---7--7--7---7---7--|--7--7---7---7--7--7---7---7--|--7--7---7---7--7--7--7--7--|
--0--0---0---0--0--0---0---0--|--0--0---0---0--0--0---0---0--|--0--0---0---0--0--0--0--0--|


                            PM PM PM PM PM PM PM PM    PM PM PM PM PM PM PM PM  
  E  E  E  E  E  E  Q       E  E  E  E  E  E  E  E     E  E  E  E  E  E  E  E   
-------------------------|--------------------------|--------------------------|
-------------------------|--------------------------|--------------------------|
--5--5--5----------------|--------------------------|--------------------------|
--5--5--5--5--5--5--5----|--------------------------|-----7-----7--9--------9--|
--3--3--3--5--5--5--5----|--------------------------|-----5-----5--7--------7--|
-----------3--3--3--3----|--0--0--0--0--0--0--0--0--|--0--0--0--0--0--0--0--0--|


  E  E  E  E  E  E  E  E     E  E  E  E  E  E  E  E      E   E   E   E  Q     Q      
--------------------------|--------------------------|------------------------------|
--------------------------|--------------------------|--12--12--12--12--7-----------|
--------------------------|--------------------------|--12--12--12--12--7-----------|
--------------------------|--------------------------|--12--12--12--12--7----12\----|
--------------------------|--------------------------|--10--10--10--10--5----10\----|
--0--0--0--0--0--0--0--0--|--0--0--0--0--0--0--0--0--|------------------------------|


  E  E  Q    E  E  E  E     E  E   E   E  E  E   E   E     E  E   E   E  E  E   E   E   
-------------------------|------------------------------|------------------------------|
-------------------------|------------------------------|------------------------------|
--5--5--5----------------|------------------------------|------------------------------|
--5--5--5----------------|--9--9--11p--9--9--9--11p--9--|--9--9--11p--9--9--9--11p--9--|
--3--3--3----------------|--7--7---7---7--7--7---7---7--|--7--7---7---7--7--7---7---7--|
-------------3--2--1--0--|--0--0---0---0--0--0---0---0--|--0--0---0---0--0--0---0---0--|


   E   E   E   E  Q     Q        E  E  Q    E  E  E  E     E  E   E   E  E  E   E  E   
------------------------------|-------------------------|-----------------------------|
--12--12--12--12--7-----------|-------------------------|-----------------------------|
--12--12--12--12--7-----------|--5--5--5----------------|-----------------------------|
--12--12--12--12--7----12\----|--5--5--5----------------|--9--9--11p--9--9--9--11--9--|
--10--10--10--10--5----10\----|--3--3--3----------------|--7--7---7---7--7--7---7--7--|
------------------------------|-------------3--2--1--0--|--0--0---0---0--0--0---0--0--|


  E  E   E   E  E  E  E  E     E  E   E   E  E  E   E  E     E  E  Q    E  E  E  E   
----------------------------|-----------------------------|-------------------------|
----------------------------|-----------------------------|-------------------------|
----------------------------|-----------------------------|--5--5--5----------------|
--L--9--11p--9--9--9--------|--9--9--11p--9--9--9--11--9--|--5--5--5----5--5--5-----|
--L--7---7---7--7--7--------|--7--7---7---7--7--7---7--7--|--3--3--3----5--5--5-----|
--L--0---0---0--0--0--0--0--|--0--0---0---0--0--0---0--0--|-------------3--3--3--0--|


                 PM PM                                                                             
  E  E  E  E  E  E  E  E     E  E   E  E  E  E  Q        H.           Q       E  E  Q    H         
--------------------------|---------------------------|--------------------|----------------------|
--------------------------|--9-----10-----9-----------|--------------------|----------------------|
-----7--L--7--9-----------|--9------9-----9-----------|--7------------5----|----------------------|
-----7--L--7--9-----------|--9------9-----9-----7\----|--7------------5----|-------------9--------|
-----5--L--5--7-----------|--7------7-----7-----5\----|--5------------5----|-------------7--------|
--0-----0--0--0--0--0--0--|--0--0---0--0--0--0--------|--------------------|--5--3--0-------------|


   E   E   E   E  Q     Q        E  E  Q    E  E  Q       E  E   E   E  E  E  E   E   
------------------------------|------------------------|-----------------------------|
--12--12--12--12--7-----------|------------------------|-------------------------10--|
--12--12--12--12--7-----------|--5--5--5---------------|--------------------------9--|
--12--12--12--12--7----12\----|--5--5--5----5--5--5----|--9--9--11p--9--9--9--9--11--|
--10--10--10--10--5----10\----|--3--3--3----5--5--5----|--7--7---7---7--7--7--7------|
------------------------------|-------------3--3--3----|--0--0---0---0--0--0--0------|


   E   E   E   E  H            E   E   E   E  Q     Q        E  E  Q    E  E  E  E   
---------------------------|------------------------------|-------------------------|
---L--10---L--10--9--------|--12--12--12--12--7-----------|-------------------------|
---L---9---L---9--9--------|--12--12--12--12--7-----------|--5--5--5----------------|
---L--11---L--11--9--------|--12--12--12--12--7----12\----|--5--5--5----------------|
---------------------------|--10--10--10--10--5----10\----|--3--3--3----------------|
---0-------0---------------|------------------------------|-------------3--2--1--0--|


  E  E   E   E  E  E   E   E     E  E   E   E  E  E   E   E      E   E   E   E  Q     Q      
------------------------------|------------------------------|------------------------------|
------------------------------|------------------------------|--12--12--12--12--7-----------|
------------------------------|------------------------------|--12--12--12--12--7-----------|
--9--9--11p--9--9--9--11p--9--|--9--9--11p--9--9--9--11p--9--|--12--12--12--12--7----12\----|
--7--7---7---7--7--7---7---7--|--7--7---7---7--7--7---7---7--|--10--10--10--10--5----10\----|
--0--0---0---0--0--0---0---0--|--0--0---0---0--0--0---0---0--|------------------------------|


  E  E  Q    E  E  Q       W                   W                   H.            
------------------------|-------------------|-------------------|---------------|
------------------------|-------------------|-------------------|---------------|
--5--5--5---------------|-------------------|-------------------|---------------|
--5--5--5----5--5--5----|--2----------------|--L----------------|--L------------|
--3--3--3----5--5--5----|--0----------------|--L----------------|--L------------|
-------------3--3--3----|-------------------|-------------------|---------------|


  H        Q    E  S S    W                   W                   W                 
-----------------------|-------------------|-------------------|-------------------|
-----------------------|-------------------|-------------------|-------------------|
-----------------------|-------------------|-------------------|-------------------|
-------------------5-5-|--5----------------|--L----------------|--9----------------|
-------------------3-3-|--3----------------|--L----------------|--7----------------|
-----------------------|-------------------|-------------------|--0----------------|

                        
  W                                           H        H          
-------------------------------------------|--------------------||
-------------------------------------------|--------------------||
-------------------------------------------|--------------------||
--L----------------------------------------|--L-----------------||
--L----------------------------------------|--L-----------------||
--L----------------------------------------|--L-----------------||




Duration Legend
---------------
W - whole
H - half
Q - quarter
E - 8th
S - 16th
T - 32nd
X - 64th
. - note dotted
|-n-|  - n-tuplets


Tablature Legend
----------------
L - tied note
x - dead note
g - grace note
(n) - ghost note
> - accentuded note
NH - natural harmonic
AH - artificial harmonic
TH - tapped harmonic
SH - semi harmonic
PH - pitch harmonic
h - hammer on
p - pull off
b - bend
br - bendRelease
pb - preBend
pbr - preBendRelease
brb - bendReleaseBend
\n/ - tremolo bar dip
\n - tremolo bar dive
-/n - tremolo bar Release up
/n\ - tremolo bar inverted dip
/n - tremolo bar return
-\n - tremolo bar Release down
S - shift slide
s - legato slide
/ -  slide into from below or out of upwards
\ -  slide into from above or out of downwards
~ - vibrato
W - wide vibrato
tr - trill
TP - tremolo picking
T - tapping
S - slap
P - pop
< - fade in
^ - brush up
v - brush down
Tap to rate this tab
 
# A B C D E F G H I J K L M N O P Q R S T U V W X Y Z