Guitaretab - guitar tabs
Song name
# A B C D E F G H I J K L M N O P Q R S T U V W X Y Z

Queen - Who Wants To Live Forever tab

-------------------------------------------------------------------------------
	             Who Wants To Live Forever  Queen
-------------------------------------------------------------------------------

 Tabbed by: davide
For any comments or suggestion : dadedred@hotmail.it



| /  slide up
| \  slide down
| h  hammer-on
| p  pull-off
| ~  vibrato
| +  harmonic
| x  Mute note


Tuning: E A D G B e




        Am               Em           C    G      A           C      D
e|---------------|---------------|---------------------|-----------------------|
B|---------------|---------------|---------------------|-----------------------|
G|---------------|--/9-7---------|----9-12-12-7-7---9--|-----------------------|
D|----7-9/10-10~-|-------10-9-9--|--9-------------9----|--9-7----9-7-7~--------|
A|--7------------|---------------|---------------------|------10---------------|
E|---------------|---------------|---------------------|-----------------------|

    
    C     G     Am         C     Bm         Am
e|----------------------|---------------------------|
B|----------------------|---------------------------|
G|--5-5~--7-7~--7-7/9~--|--9-9~--11-11~--11-11/12~--|
D|----------------------|---------------------------|
A|----------------------|---------------------------|
E|----------------------|---------------------------|


    C   D         Am             Em
e|------------------------|-----/12---------------|
B|----------10-12/13-13~--|--13-----15-13-12-12~--|
G|--9-9/7-9---------------|-----------------------|
D|------------------------|-----------------------|
A|------------------------|-----------------------|
E|------------------------|-----------------------|


       C      G          A             C        D
e|-----12-15-15--------------|-----------------------|
B|--12----------15-15-12-17--|--/12-------12-10-10~--|
G|---------------------------|------14-12------------|
D|---------------------------|-----------------------|
A|---------------------------|-----------------------|
E|---------------------------|-----------------------|

[ Tab from: http://www.guitaretab.com/q/queen/24589.html ]
       C       G          Am         C       Bm        Am
e|------------------------12~--|--12-12~--14-14~--14-14/15~--|
B|--13-13~--15-15~--15-15------|-----------------------------|
G|-----------------------------|-----------------------------|
D|-----------------------------|-----------------------------|
A|-----------------------------|-----------------------------|
E|-----------------------------|-----------------------------|


   
    C        D              Em
e|--19~---19-17~---19-17-15-12~--|
B|-------------------------------|
G|-------------------------------|
D|-------------------------------|
A|-------------------------------|
E|-------------------------------|



           C       Em          C           Em       G        D        Em
e|--------------------------------------------|----------------------------|
B|--3-5--6-6~--5--6-6~--5-6/10-8---7-10/12-8--|--8-8-8~--10-10~--8-10/12~--|
G|--------------------------------------------|----------------------------|
D|--------------------------------------------|----------------------------|
A|--------------------------------------------|----------------------------|
E|--------------------------------------------|----------------------------|



      G      D         Em        Bm        F ---------->
e|--------------------------|--------------10~--|--13~--|
B|--8-8~--10-10~--8-10/12~--|--8-12~--10-8------|-------|
G|--------------------------|-------------------|-------|
D|--------------------------|-------------------|-------|
A|--------------------------|-------------------|-------|
E|--------------------------|-------------------|-------|


        G       D          Em          G       D         Em
e|--15-15~--17-17~--/15-17/19~--|--15-15~--17-17~--15-17/19~--|
B|------------------------------|-----------------------------|
G|------------------------------|-----------------------------|
D|------------------------------|-----------------------------|
A|------------------------------|-----------------------------|
E|------------------------------|-----------------------------|


       Bm         F ----------------> Em ---------------------------> 
e|---------------------|-------------------|-------------|----------15~--||
B|----------------15~--|--15-12-13-12------|-------------|-------15------||
G|--14-12~--14-12------|--------------14~--|--12h14p12~--|--12~----------||.
D|---------------------|-------------------|-------------|---------------||.
A|---------------------|-------------------|-------------|---------------||
E|---------------------|-------------------|-------------|---------------||




                                        ENJOY ! ! ! ! ! ! !
===============================================================================

Related for Who Wants To Live Forever tab